  0
SECTION
  2
HEADER
  9
$ACADVER
  1
AC1009
  9
$INSBASE
 10
0.0
 20
0.0
 30
0.0
  9
$EXTMIN
 10
-900.05492740473437
 20
-1344.432801328511
 30
-0.0015258207003583
  9
$EXTMAX
 10
900.05493578663754
 20
1331.867842503312
 30
0.0000000349246037
  9
$LIMMIN
 10
0.0
 20
0.0
  9
$LIMMAX
 10
0.0
 20
0.0
  9
$ORTHOMODE
 70
     0
  9
$REGENMODE
 70
     1
  9
$FILLMODE
 70
     1
  9
$QTEXTMODE
 70
     0
  9
$MIRRTEXT
 70
     1
  9
$DRAGMODE
 70
     2
  9
$LTSCALE
 40
50.799999999999997
  9
$OSMODE
 70
   231
  9
$ATTMODE
 70
     1
  9
$TEXTSIZE
 40
0.0
  9
$TRACEWID
 40
1.0
  9
$TEXTSTYLE
  7
STANDARD
  9
$CLAYER
  8
DATA
  9
$CELTYPE
  6
BYLAYER
  9
$CECOLOR
 62
   256
  9
$DIMSCALE
 40
1.0
  9
$DIMASZ
 40
0.18
  9
$DIMEXO
 40
0.0625
  9
$DIMDLI
 40
0.38
  9
$DIMRND
 40
0.0
  9
$DIMDLE
 40
0.0
  9
$DIMEXE
 40
0.18
  9
$DIMTP
 40
0.0
  9
$DIMTM
 40
0.0
  9
$DIMTXT
 40
0.18
  9
$DIMCEN
 40
0.09
  9
$DIMTSZ
 40
0.0
  9
$DIMTOL
 70
     0
  9
$DIMLIM
 70
     0
  9
$DIMTIH
 70
     1
  9
$DIMTOH
 70
     1
  9
$DIMSE1
 70
     0
  9
$DIMSE2
 70
     0
  9
$DIMTAD
 70
     0
  9
$DIMZIN
 70
     0
  9
$DIMBLK
  1

  9
$DIMASO
 70
     1
  9
$DIMSHO
 70
     1
  9
$DIMPOST
  1

  9
$DIMAPOST
  1

  9
$DIMALT
 70
     0
  9
$DIMALTD
 70
     2
  9
$DIMALTF
 40
25.399999999999999
  9
$DIMLFAC
 40
1.0
  9
$DIMTOFL
 70
     0
  9
$DIMTVP
 40
0.0
  9
$DIMTIX
 70
     0
  9
$DIMSOXD
 70
     0
  9
$DIMSAH
 70
     0
  9
$DIMBLK1
  1

  9
$DIMBLK2
  1

  9
$DIMSTYLE
  2
STANDARD
  9
$DIMCLRD
 70
     0
  9
$DIMCLRE
 70
     0
  9
$DIMCLRT
 70
     0
  9
$DIMTFAC
 40
1.0
  9
$DIMGAP
 40
0.09
  9
$LUNITS
 70
     2
  9
$LUPREC
 70
     4
  9
$SKETCHINC
 40
0.1
  9
$FILLETRAD
 40
0.0
  9
$AUNITS
 70
     0
  9
$AUPREC
 70
     0
  9
$MENU
  1
acad
  9
$ELEVATION
 40
0.0
  9
$PELEVATION
 40
0.0
  9
$THICKNESS
 40
0.0
  9
$LIMCHECK
 70
     0
  9
$BLIPMODE
 70
     0
  9
$CHAMFERA
 40
0.0
  9
$CHAMFERB
 40
0.0
  9
$SKPOLY
 70
     0
  9
$TDCREATE
 40
2456630.5748495371
  9
$TDUPDATE
 40
2456630.5756520368
  9
$TDINDWG
 40
0.0003447569
  9
$TDUSRTIMER
 40
0.0003446991
  9
$USRTIMER
 70
     1
  9
$ANGBASE
 50
0.0
  9
$ANGDIR
 70
     0
  9
$PDMODE
 70
     1
  9
$PDSIZE
 40
-2.0
  9
$PLINEWID
 40
0.0
  9
$COORDS
 70
     2
  9
$SPLFRAME
 70
     0
  9
$SPLINETYPE
 70
     6
  9
$SPLINESEGS
 70
     8
  9
$ATTDIA
 70
     0
  9
$ATTREQ
 70
     1
  9
$HANDLING
 70
     1
  9
$HANDSEED
  5
677
  9
$SURFTAB1
 70
     6
  9
$SURFTAB2
 70
     6
  9
$SURFTYPE
 70
     6
  9
$SURFU
 70
     6
  9
$SURFV
 70
     6
  9
$UCSNAME
  2

  9
$UCSORG
 10
0.0
 20
0.0
 30
0.0
  9
$UCSXDIR
 10
1.0
 20
0.0
 30
0.0
  9
$UCSYDIR
 10
0.0
 20
1.0
 30
0.0
  9
$PUCSNAME
  2

  9
$PUCSORG
 10
0.0
 20
0.0
 30
0.0
  9
$PUCSXDIR
 10
1.0
 20
0.0
 30
0.0
  9
$PUCSYDIR
 10
0.0
 20
1.0
 30
0.0
  9
$USERI1
 70
     0
  9
$USERI2
 70
     0
  9
$USERI3
 70
     0
  9
$USERI4
 70
     0
  9
$USERI5
 70
     0
  9
$USERR1
 40
0.0
  9
$USERR2
 40
0.0
  9
$USERR3
 40
0.0
  9
$USERR4
 40
0.0
  9
$USERR5
 40
0.0
  9
$WORLDVIEW
 70
     1
  9
$SHADEDGE
 70
     3
  9
$SHADEDIF
 70
    70
  9
$TILEMODE
 70
     1
  9
$MAXACTVP
 70
    64
  9
$PLIMCHECK
 70
     0
  9
$PEXTMIN
 10
1.0000000000000000E+020
 20
1.0000000000000000E+020
 30
1.0000000000000000E+020
  9
$PEXTMAX
 10
-1.0000000000000000E+020
 20
-1.0000000000000000E+020
 30
-1.0000000000000000E+020
  9
$PLIMMIN
 10
0.0
 20
0.0
  9
$PLIMMAX
 10
12.0
 20
9.0
  9
$UNITMODE
 70
     0
  9
$VISRETAIN
 70
     0
  9
$PLINEGEN
 70
     1
  9
$PSLTSCALE
 70
     0
  0
ENDSEC
  0
SECTION
  2
TABLES
  0
TABLE
  2
VPORT
 70
     1
  0
VPORT
  2
*ACTIVE
 70
     0
 10
0.0
 20
0.0
 11
1.0
 21
1.0
 12
0.0000041909518131
 22
-6.282479412599514
 13
0.0
 23
0.0
 14
1.0
 24
1.0
 15
0.0
 25
0.0
 16
0.0
 26
0.0
 36
1.0
 17
0.0
 27
0.0
 37
0.0
 40
2697.3738772478218
 41
2.1787122207621552
 42
50.0
 43
0.0
 44
0.0
 50
0.0
 51
0.0
 71
     0
 72
  2000
 73
     1
 74
     1
 75
     0
 76
     0
 77
     0
 78
     0
  0
ENDTAB
  0
TABLE
  2
LTYPE
 70
    11
  0
LTYPE
  2
CONTINUOUS
 70
     0
  3
Solid line
 72
    65
 73
     0
 40
0.0
  0
LTYPE
  2
STYLE_01
 70
     0
  3

 72
    65
 73
     2
 40
0.4166412353515625
 49
0.208282470703125
 49
-0.2083587646484375
  0
LTYPE
  2
STYLE_02
 70
     0
  3

 72
    65
 73
     2
 40
0.694427490234375
 49
0.4860687255859375
 49
-0.2083587646484375
  0
LTYPE
  2
STYLE_05
 70
     0
  3

 72
    65
 73
     2
 40
0.208282470703125
 49
0.069427490234375
 49
-0.13885498046875
  0
ENDTAB
  0
TABLE
  2
LAYER
 70
     5
  0
LAYER
  2
0
 70
     0
 62
     7
  6
CONTINUOUS
  0
LAYER
  2
DATA
 70
     0
 62
     7
  6
CONTINUOUS
  0
LAYER
  2
HIBINO-BASE
 70
     0
 62
     7
  6
CONTINUOUS
  0
LAYER
  2
SPEC
 70
     0
 62
     7
  6
CONTINUOUS
  0
LAYER
  2
DIMNSIONS
 70
     0
 62
     7
  6
CONTINUOUS
  0
ENDTAB
  0
TABLE
  2
STYLE
 70
     3
  0
STYLE
  2
STANDARD
 70
     0
 40
0.0
 41
1.0
 50
0.0
 71
     0
 42
0.0
  3
txt
  4
BIGFONT.SHX
  0
ENDTAB
  0
TABLE
  2
VIEW
 70
     0
  0
ENDTAB
  0
TABLE
  2
UCS
 70
     0
  0
ENDTAB
  0
TABLE
  2
APPID
 70
     4
  0
APPID
  2
ACAD
 70
     0
  0
APPID
  2
ACADANNOTATIVE
 70
     0
  0
APPID
  2
ACAD_NAV_VCDISPLAY
 70
     0
  0
APPID
  2
ACAD_MLEADERVER
 70
     0
  0
ENDTAB
  0
TABLE
  2
DIMSTYLE
 70
     2
  0
DIMSTYLE
  2
STANDARD
 70
     0
  3

  4

  5

  6

  7

 40
1.0
 41
0.18
 42
0.0625
 43
0.38
 44
0.18
 45
0.0
 46
0.0
 47
0.0
 48
0.0
140
0.18
141
0.09
142
0.0
143
25.399999999999999
144
1.0
145
0.0
146
1.0
147
0.09
 71
     0
 72
     0
 73
     1
 74
     1
 75
     0
 76
     0
 77
     0
 78
     0
170
     0
171
     2
172
     0
173
     0
174
     0
175
     0
176
     0
177
     0
178
     0
  0
ENDTAB
  0
ENDSEC
  0
SECTION
  2
BLOCKS
  0
BLOCK
  8
0
  2
$MODEL_SPACE
 70
     0
 10
0.0
 20
0.0
 30
0.0
  3
$MODEL_SPACE
  1

  0
ENDBLK
  5
5C1
  8
0
  0
BLOCK
 67
     1
  8
0
  2
$PAPER_SPACE
 70
     0
 10
0.0
 20
0.0
 30
0.0
  3
$PAPER_SPACE
  1

  0
ENDBLK
  5
5BD
 67
     1
  8
0
  0
ENDSEC
  0
SECTION
  2
ENTITIES
  0
LINE
  5
2C
  8
HIBINO-BASE
  6
CONTINUOUS
 62
     7
 10
-899.99999995499968
 20
1331.786334933234
 30
0.0
 11
899.99999995499968
 21
1331.786334933234
 31
0.0
  0
LINE
  5
2D
  8
HIBINO-BASE
  6
CONTINUOUS
 62
     7
 10
899.99999995499968
 20
-1268.213664936766
 30
0.0
 11
-899.99999995499968
 21
-1268.213664936766
 31
0.0
  0
LINE
  5
2E
  8
HIBINO-BASE
  6
CONTINUOUS
 62
     7
 10
-899.99999995499968
 20
-1268.213664936766
 30
0.0
 11
-899.99999995499968
 21
1331.786334933234
 31
0.0
  0
LINE
  5
2F
  8
HIBINO-BASE
  6
CONTINUOUS
 62
     7
 10
899.99999995499968
 20
1331.786334933234
 30
0.0
 11
899.99999995499968
 21
-1268.213664936766
 31
0.0
  0
LINE
  5
30
  8
HIBINO-BASE
  6
CONTINUOUS
 62
     7
 10
0.0000000000000711
 20
-1043.213664948016
 30
0.0
 11
899.99999995499968
 21
-1043.213664948016
 31
0.0
  0
LINE
  5
31
  8
HIBINO-BASE
  6
CONTINUOUS
 62
     7
 10
0.0000000000000711
 20
-1268.213664936766
 30
0.0
 11
0.0000000000000711
 21
-1043.213664948016
 31
0.0
  0
TEXT
  5
32
  8
HIBINO-BASE
 62
     7
 10
8.9999999995501252
 20
-1068.3005982800939
 30
0.0
 40
16.288411457518912
  1
NOTE
 41
0.7
 11
8.9999999995501252
 21
-1052.0121868225749
 31
0.0
 73
     3
  0
LINE
  5
33
  8
HIBINO-BASE
  6
CONTINUOUS
 62
     7
 10
349.99999998250013
 20
-1268.213664936766
 30
0.0
 11
349.99999998250013
 21
-1043.213664948016
 31
0.0
  0
TEXT
  5
34
  8
HIBINO-BASE
 62
     7
 10
358.99999998204999
 20
-1068.3005982800939
 30
0.0
 40
16.288411457518912
  1
TITLE
 41
0.7
 11
358.99999998204999
 21
-1052.0121868225749
 31
0.0
 73
     3
  0
LINE
  5
35
  8
HIBINO-BASE
  6
CONTINUOUS
 62
     7
 10
0.0000000000000711
 20
-1168.213664941766
 30
0.0
 11
899.99999995499968
 21
-1168.213664941766
 31
0.0
  0
TEXT
  5
36
  8
HIBINO-BASE
 62
     7
 10
483.99999997579988
 20
-1192.7373982738729
 30
0.0
 40
16.288411457518912
  1
DRAWN
 41
0.7
 11
483.99999997579988
 21
-1176.4489868163539
 31
0.0
 73
     3
  0
TEXT
  5
37
  8
HIBINO-BASE
 62
     7
 10
233.9999999883
 20
-1192.7373982738729
 30
0.0
 40
16.288411457518912
  1
DATE
 41
0.7
 11
233.9999999883
 21
-1176.4489868163539
 31
0.0
 73
     3
  0
TEXT
  5
38
  8
HIBINO-BASE
 62
     7
 10
133.99999999330001
 20
-1192.7373982738729
 30
0.0
 40
16.288411457518912
  1
SCALE
 41
0.7
 11
133.99999999330001
 21
-1176.4489868163539
 31
0.0
 73
     3
  0
TEXT
  5
39
  8
HIBINO-BASE
 62
     7
 10
358.99999998204999
 20
-1192.7373982738729
 30
0.0
 40
16.288411457518912
  1
DESIGN
 41
0.7
 11
358.99999998204999
 21
-1176.4489868163539
 31
0.0
 73
     3
  0
TEXT
  5
3A
  8
HIBINO-BASE
 62
     7
 10
733.99999996329984
 20
-1192.7373982738729
 30
0.0
 40
16.288411457518912
  1
DRAWING NO.
 41
0.7
 11
733.99999996329984
 21
-1176.4489868163539
 31
0.0
 73
     3
  0
TEXT
  5
3B
  8
HIBINO-BASE
 62
     7
 10
608.99999996954989
 20
-1192.7373982738729
 30
0.0
 40
16.288411457518912
  1
CHECK
 41
0.7
 11
608.99999996954989
 21
-1176.4489868163539
 31
0.0
 73
     3
  0
LINE
  5
3C
  8
HIBINO-BASE
  6
CONTINUOUS
 62
     7
 10
143.7499999928126
 20
-1255.7136649373911
 30
0.0
 11
181.24999999093771
 21
-1218.213664939266
 31
0.0
  0
TEXT
  5
3D
  8
HIBINO-BASE
 62
     7
 10
137.49999999312499
 20
-1229.303098272045
 30
0.0
 40
16.288411457518912
  1
1
 41
0.7
 11
137.49999999312499
 21
-1213.0146868145259
 31
0.0
 73
     3
  0
LINE
  5
3E
  8
HIBINO-BASE
  6
CONTINUOUS
 62
     7
 10
124.99999999375009
 20
-1268.213664936766
 30
0.0
 11
124.99999999375009
 21
-1168.213664941766
 31
0.0
  0
LINE
  5
3F
  8
HIBINO-BASE
  6
CONTINUOUS
 62
     7
 10
224.99999998874989
 20
-1268.213664936766
 30
0.0
 11
224.99999998874989
 21
-1168.213664941766
 31
0.0
  0
LINE
  5
40
  8
HIBINO-BASE
  6
CONTINUOUS
 62
     7
 10
474.9999999762498
 20
-1168.213664941766
 30
0.0
 11
474.9999999762498
 21
-1268.213664936766
 31
0.0
  0
LINE
  5
41
  8
HIBINO-BASE
  6
CONTINUOUS
 62
     7
 10
724.99999996375016
 20
-1168.213664941766
 30
0.0
 11
724.99999996375016
 21
-1268.213664936766
 31
0.0
  0
LINE
  5
42
  8
HIBINO-BASE
  6
CONTINUOUS
 62
     7
 10
599.99999996999986
 20
-1268.213664936766
 30
0.0
 11
599.99999996999986
 21
-1168.213664941766
 31
0.0
  0
TEXT
  5
43
  8
HIBINO-BASE
 62
     7
 10
233.5653999883219
 20
-1239.577198271531
 30
0.0
 40
16.288411457518912
  1
'13.12.
 41
0.7
 11
233.5653999883219
 21
-1223.2887868140119
 31
0.0
 73
     3
  0
TEXT
  5
44
  8
HIBINO-BASE
 62
     7
 10
174.99999999125001
 20
-1248.053098271107
 30
0.0
 40
16.288411457518912
  1
10
 41
0.7
 11
174.99999999125001
 21
-1231.764686813588
 31
0.0
 73
     3
  0
TEXT
  5
45
  8
HIBINO-BASE
 62
     7
 10
490.05810008584342
 20
-1239.577198271531
 30
0.0
 40
16.288411457518912
  1
Ootake
 41
0.7
 11
490.05810008584342
 21
-1223.2887868140119
 31
0.0
 73
     3
  0
TEXT
  5
46
  8
HIBINO-BASE
 62
     7
 10
38.833333331391948
 20
-1248.453664937754
 30
0.0
 40
32.576822915037823
  1
A4
 41
0.7
 11
38.833333331391948
 21
-1215.8768420227159
 31
0.0
 73
     3
  0
TEXT
  5
47
  8
HIBINO-BASE
 62
     7
 10
9.5833333328541883
 20
-1194.408214940456
 30
0.0
 40
16.288411457518912
  1
PAPER SIZE
 41
0.7
 11
9.5833333328541901
 21
-1178.119803482937
 31
0.0
 73
     3
  0
TEXT
  5
48
  8
HIBINO-BASE
 62
     7
 10
-828.15999995859158
 20
-1332.300442933561
 30
0.0
 40
36.000441795074977
  1
Hibino Corporation
 41
0.7
 11
-828.15999995859158
 21
-1296.3000011384861
 31
0.0
 73
     3
  0
TEXT
  5
49
  8
HIBINO-BASE
 62
     7
 10
500.68389997496581
 20
-1332.300442933561
 30
0.0
 40
36.000441795074977
  1
ヒビノ株式会社
 41
0.7
 11
500.68389997496581
 21
-1296.3000011384861
 31
0.0
 73
     3
  0
LINE
  5
4A
  8
SPEC
  6
CONTINUOUS
 62
     7
 10
-824.99999995874964
 20
1231.7863349382339
 30
0.0
 11
650.00000004125025
 21
1231.7863349382339
 31
0.0
  0
LINE
  5
4B
  8
SPEC
  6
CONTINUOUS
 62
     7
 10
-824.99999995874964
 20
1194.2863349382339
 30
0.0
 11
650.00000004125025
 21
1194.2863349382339
 31
0.0
  0
LINE
  5
4C
  8
SPEC
  6
CONTINUOUS
 62
     7
 10
-824.99999995874964
 20
1044.2863349382339
 30
0.0
 11
650.00000004125025
 21
1044.2863349382339
 31
0.0
  0
LINE
  5
4D
  8
SPEC
  6
CONTINUOUS
 62
     7
 10
-824.99999995874964
 20
1081.7863349382339
 30
0.0
 11
650.00000004125025
 21
1081.7863349382339
 31
0.0
  0
LINE
  5
4E
  8
SPEC
  6
CONTINUOUS
 62
     7
 10
-824.99999995874964
 20
1119.2863349382339
 30
0.0
 11
650.00000004125025
 21
1119.2863349382339
 31
0.0
  0
LINE
  5
4F
  8
SPEC
  6
CONTINUOUS
 62
     7
 10
-824.99999995874964
 20
1006.7863349382339
 30
0.0
 11
650.00000004125025
 21
1006.7863349382339
 31
0.0
  0
LINE
  5
50
  8
SPEC
  6
CONTINUOUS
 62
     7
 10
-824.99999995874964
 20
931.78633493823395
 30
0.0
 11
650.00000004125025
 21
931.78633493823395
 31
0.0
  0
LINE
  5
51
  8
SPEC
  6
CONTINUOUS
 62
     7
 10
-824.99999995874964
 20
969.28633493823395
 30
0.0
 11
650.00000004125025
 21
969.28633493823395
 31
0.0
  0
LINE
  5
52
  8
SPEC
  6
CONTINUOUS
 62
     7
 10
-824.99999995874964
 20
894.28633493823395
 30
0.0
 11
650.00000004125025
 21
894.28633493823395
 31
0.0
  0
LINE
  5
53
  8
SPEC
  6
CONTINUOUS
 62
     7
 10
-824.99999995874964
 20
856.78633493823395
 30
0.0
 11
650.00000004125025
 21
856.78633493823395
 31
0.0
  0
LINE
  5
54
  8
SPEC
  6
CONTINUOUS
 62
     7
 10
-824.99999995874964
 20
1156.7863349382339
 30
0.0
 11
650.00000004125025
 21
1156.7863349382339
 31
0.0
  0
LINE
  5
55
  8
SPEC
  6
CONTINUOUS
 62
     7
 10
-824.99999995874964
 20
781.78633493823395
 30
0.0
 11
650.00000004125025
 21
781.78633493823395
 31
0.0
  0
LINE
  5
56
  8
SPEC
  6
CONTINUOUS
 62
     7
 10
-824.99999995874964
 20
1231.7863349382339
 30
0.0
 11
-824.99999995874964
 21
744.28633493823395
 31
0.0
  0
TEXT
  5
57
  8
SPEC
 62
     7
 10
-812.49999995874964
 20
1245.7190349382331
 30
0.0
 40
24.4326171875
  1
仕様
 41
0.7
 11
-812.49999995874964
 21
1270.1516521257331
 31
0.0
 73
     3
  0
LINE
  5
58
  8
SPEC
  6
CONTINUOUS
 62
     7
 10
-499.99999995875191
 20
1231.7863349382339
 30
0.0
 11
-499.99999995875191
 21
744.28633493823395
 31
0.0
  0
LINE
  5
59
  8
SPEC
  6
CONTINUOUS
 62
     7
 10
650.00000004125025
 20
1231.7863349382339
 30
0.0
 11
650.00000004125025
 21
744.28633493823395
 31
0.0
  0
TEXT
  5
5A
  8
SPEC
 62
     7
 10
-490.999999958751
 20
752.16551271601202
 30
0.0
 40
19.003146701388889
  1
ウィンドスクリーン
 41
0.7
 11
-490.999999958751
 21
771.16865941740093
 31
0.0
 73
     3
  0
LINE
  5
5B
  8
SPEC
  6
CONTINUOUS
 62
     7
 10
-824.99999995874964
 20
819.28633493823395
 30
0.0
 11
650.00000004125025
 21
819.28633493823395
 31
0.0
  0
LINE
  5
5C
  8
SPEC
  6
CONTINUOUS
 62
     7
 10
-824.99999995874964
 20
744.28633493823395
 30
0.0
 11
650.00000004125025
 21
744.28633493823395
 31
0.0
  0
TEXT
  5
5D
  8
SPEC
 62
     7
 10
-815.999999958751
 20
1202.165512716012
 30
0.0
 40
19.003146701388889
  1
形式
 41
0.7
 11
-815.999999958751
 21
1221.1686594174009
 31
0.0
 73
     3
  0
TEXT
  5
5E
  8
SPEC
 62
     7
 10
-490.999999958751
 20
1202.165512716012
 30
0.0
 40
19.003146701388889
  1
コンデンサー型 
 41
0.7
 11
-490.999999958751
 21
1221.1686594174009
 31
0.0
 73
     3
  0
TEXT
  5
5F
  8
SPEC
 62
     7
 10
-799.9999999587518
 20
702.29459271601138
 30
0.0
 40
19.003146701388889
  1
※ ON/OFF スイッチの動作やLED ライト、ローカットフィルターのON/OFF を切り替える場合は、
 41
0.7
 11
-799.9999999587518
 21
721.29773941740041
 31
0.0
 73
     3
  0
TEXT
  5
60
  8
SPEC
 62
     7
 10
-799.9999999587518
 20
677.6001482715667
 30
0.0
 40
19.003146701388889
  1
　 一度マイクケーブルを外し、本機裏面の半固定ロータ リースイッチを回してください。
 41
0.7
 11
-799.9999999587518
 21
696.60329497295561
 31
0.0
 73
     3
  0
TEXT
  5
61
  8
SPEC
 62
     7
 10
-815.999999958751
 20
1164.665512716012
 30
0.0
 40
19.003146701388889
  1
指向特性
 41
0.7
 11
-815.999999958751
 21
1183.6686594174009
 31
0.0
 73
     3
  0
TEXT
  5
62
  8
SPEC
 62
     7
 10
-490.999999958751
 20
1164.665512716012
 30
0.0
 40
19.003146701388889
  1
カーディオイド
 41
0.7
 11
-490.999999958751
 21
1183.6686594174009
 31
0.0
 73
     3
  0
TEXT
  5
63
  8
SPEC
 62
     7
 10
-815.999999958751
 20
1127.165512716012
 30
0.0
 40
19.003146701388889
  1
周波数特性
 41
0.7
 11
-815.999999958751
 21
1146.1686594174009
 31
0.0
 73
     3
  0
TEXT
  5
64
  8
SPEC
 62
     7
 10
-490.999999958751
 20
1127.165512716012
 30
0.0
 40
19.003146701388889
  1
70Hz～18kHz
 41
0.7
 11
-490.999999958751
 21
1146.1686594174009
 31
0.0
 73
     3
  0
TEXT
  5
65
  8
SPEC
 62
     7
 10
-815.999999958751
 20
1089.665512716012
 30
0.0
 40
19.003146701388889
  1
開回路感度
 41
0.7
 11
-815.999999958751
 21
1108.6686594174009
 31
0.0
 73
     3
  0
TEXT
  5
66
  8
SPEC
 62
     7
 10
-490.999999958751
 20
1089.665512716012
 30
0.0
 40
19.003146701388889
  1
-35dB re 1V/Pa
 41
0.7
 11
-490.999999958751
 21
1108.6686594174009
 31
0.0
 73
     3
  0
TEXT
  5
67
  8
SPEC
 62
     7
 10
-490.999999958751
 20
1052.165512716012
 30
0.0
 40
19.003146701388889
  1
125dB SPL(THD 1%%%)
 41
0.7
 11
-490.999999958751
 21
1071.1686594174009
 31
0.0
 73
     3
  0
TEXT
  5
68
  8
SPEC
 62
     7
 10
-815.999999958751
 20
1052.165512716012
 30
0.0
 40
19.003146701388889
  1
最大音圧レベル
 41
0.7
 11
-815.999999958751
 21
1071.1686594174009
 31
0.0
 73
     3
  0
TEXT
  5
69
  8
SPEC
 62
     7
 10
-815.999999958751
 20
1014.665512716012
 30
0.0
 40
19.003146701388889
  1
等価雑音レベル
 41
0.7
 11
-815.999999958751
 21
1033.6686594174009
 31
0.0
 73
     3
  0
TEXT
  5
6A
  8
SPEC
 62
     7
 10
-490.999999958751
 20
1014.665512716012
 30
0.0
 40
19.003146701388889
  1
21dB SPL(A ウェイト)
 41
0.7
 11
-490.999999958751
 21
1033.6686594174009
 31
0.0
 73
     3
  0
TEXT
  5
6B
  8
SPEC
 62
     7
 10
-817.99999995875135
 20
980.98903716045663
 30
0.0
 40
19.003146701388889
  1
ローカットフィルター
 41
0.7
 11
-817.99999995875135
 21
999.99218386184555
 31
0.0
 73
     3
  0
TEXT
  5
6C
  8
SPEC
 62
     7
 10
-490.999999958751
 20
977.1655127160119
 30
0.0
 40
19.003146701388889
  1
150Hz(12dB/oct) ※ロータリースイッチで設定
 41
0.7
 11
-490.999999958751
 21
996.16865941740082
 31
0.0
 73
     3
  0
TEXT
  5
6D
  8
SPEC
 62
     7
 10
-815.999999958751
 20
939.6655127160119
 30
0.0
 40
19.003146701388889
  1
インピーダンス
 41
0.7
 11
-815.999999958751
 21
958.66865941740082
 31
0.0
 73
     3
  0
TEXT
  5
6E
  8
SPEC
 62
     7
 10
-490.999999958751
 20
939.6655127160119
 30
0.0
 40
19.003146701388889
  1
600\U+03A9以下
 41
0.7
 11
-490.999999958751
 21
958.66865941740082
 31
0.0
 73
     3
  0
TEXT
  5
6F
  8
SPEC
 62
     7
 10
-815.999999958751
 20
902.1655127160119
 30
0.0
 40
19.003146701388889
  1
電源
 41
0.7
 11
-815.999999958751
 21
921.16865941740082
 31
0.0
 73
     3
  0
TEXT
  5
70
  8
SPEC
 62
     7
 10
-490.999999958751
 20
902.1655127160119
 30
0.0
 40
19.003146701388889
  1
ファンタム DC9 ～ 52V/3mA 以下
 41
0.7
 11
-490.999999958751
 21
921.16865941740082
 31
0.0
 73
     3
  0
TEXT
  5
71
  8
SPEC
 62
     7
 10
-490.999999958751
 20
864.6655127160119
 30
0.0
 40
19.003146701388889
  1
XLR3ピン
 41
0.7
 11
-490.999999958751
 21
883.66865941740093
 31
0.0
 73
     3
  0
TEXT
  5
72
  8
SPEC
 62
     7
 10
-815.999999958751
 20
864.6655127160119
 30
0.0
 40
19.003146701388889
  1
コネクター
 41
0.7
 11
-815.999999958751
 21
883.66865941740093
 31
0.0
 73
     3
  0
TEXT
  5
73
  8
SPEC
 62
     7
 10
-815.999999958751
 20
827.1655127160119
 30
0.0
 40
19.003146701388889
  1
寸法(W\U+00D7H\U+00D7D)
 41
0.7
 11
-815.999999958751
 21
846.16865941740093
 31
0.0
 73
     3
  0
TEXT
  5
74
  8
SPEC
 62
     7
 10
-490.999999958751
 20
827.1655127160119
 30
0.0
 40
19.003146701388889
  1
91\U+00D7536\U+00D7142m(除突起部)
 41
0.7
 11
-490.999999958751
 21
846.16865941740093
 31
0.0
 73
     3
  0
TEXT
  5
75
  8
SPEC
 62
     7
 10
-815.999999958751
 20
789.66551271601202
 30
0.0
 40
19.003146701388889
  1
質量
 41
0.7
 11
-815.999999958751
 21
808.66865941740093
 31
0.0
 73
     3
  0
TEXT
  5
76
  8
SPEC
 62
     7
 10
-490.999999958751
 20
789.66551271601202
 30
0.0
 40
19.003146701388889
  1
810g
 41
0.7
 11
-490.999999958751
 21
808.66865941740093
 31
0.0
 73
     3
  0
TEXT
  5
77
  8
SPEC
 62
     7
 10
-815.999999958751
 20
752.16551271601202
 30
0.0
 40
19.003146701388889
  1
付属品
 41
0.7
 11
-815.999999958751
 21
771.16865941740093
 31
0.0
 73
     3
  0
TEXT
  5
78
  8
DIMNSIONS
 62
     7
 10
-199.99999998999991
 20
-1145.5187649428999
 30
0.0
 40
24.432617186278371
  1
(単位：mm)
 41
0.7
 11
-199.99999998999991
 21
-1121.086147756622
 31
0.0
 73
     3
  0
LINE
  5
79
  8
DIMNSIONS
  6
CONTINUOUS
 62
     7
 10
-465.49754773283229
 20
-950.0
 30
0.0
 11
-499.99754773280671
 21
-950.0
 31
0.0
  0
LINE
  5
7A
  8
DIMNSIONS
  6
CONTINUOUS
 62
     7
 10
-436.99754773280671
 20
-909.00655004714054
 30
0.0
 11
-499.99754773280671
 21
-909.00655004714054
 31
0.0
  0
LINE
  5
7B
  8
DIMNSIONS
  6
CONTINUOUS
 62
     7
 10
-479.99754773280671
 20
-909.00655004714054
 30
0.0
 11
-479.99754773280671
 21
-833.60679064857015
 31
0.0
  0
LINE
  5
7C
  8
DIMNSIONS
  6
CONTINUOUS
 62
     7
 10
-479.99754773280671
 20
-950.0
 30
0.0
 11
-479.99754773280671
 21
-909.00655004714054
 31
0.0
  0
LINE
  5
7D
  8
DIMNSIONS
  6
CONTINUOUS
 62
     7
 10
-479.99754773280671
 20
-950.0
 30
0.0
 11
-486.6979456843091
 21
-924.99377441406227
 31
0.0
  0
LINE
  5
7E
  8
DIMNSIONS
  6
CONTINUOUS
 62
     7
 10
-479.99754773280671
 20
-950.0
 30
0.0
 11
-473.29714978130431
 21
-924.99377441406227
 31
0.0
  0
LINE
  5
7F
  8
DIMNSIONS
  6
CONTINUOUS
 62
     7
 10
-479.99754773280671
 20
-909.00655004714054
 30
0.0
 11
-473.29714978130431
 21
-934.01277563307758
 31
0.0
  0
LINE
  5
80
  8
DIMNSIONS
  6
CONTINUOUS
 62
     7
 10
-479.99754773280671
 20
-909.00655004714054
 30
0.0
 11
-486.6979456843091
 21
-934.01277563307758
 31
0.0
  0
TEXT
  5
81
  8
DIMNSIONS
 62
     7
 10
-488.43643662169569
 20
-904.16234620412558
 30
0.0
 40
27.147352430555561
  1
41.0
 50
90.0
 41
0.7
 11
-515.58378905225118
 21
-904.16234620412558
 31
0.0
 73
     3
  0
LINE
  5
82
  8
DIMNSIONS
  6
CONTINUOUS
 62
     7
 10
-453.49999999999949
 20
-950.99999999999955
 30
0.0
 11
-499.99754773280671
 21
-950.99999999999955
 31
0.0
  0
LINE
  5
83
  8
DIMNSIONS
  6
CONTINUOUS
 62
     7
 10
-465.49754773283229
 20
-950.0
 30
0.0
 11
-499.99754773280671
 21
-950.0
 31
0.0
  0
LINE
  5
84
  8
DIMNSIONS
  6
CONTINUOUS
 62
     7
 10
-479.99754773280671
 20
-950.0
 30
0.0
 11
-479.99754773280671
 21
-950.99999999999955
 31
0.0
  0
LINE
  5
85
  8
DIMNSIONS
  6
CONTINUOUS
 62
     7
 10
-479.99754773280671
 20
-950.99999999999955
 30
0.0
 11
-479.99754773280671
 21
-1025.1723632812491
 31
0.0
  0
LINE
  5
86
  8
DIMNSIONS
  6
CONTINUOUS
 62
     7
 10
-479.99754773280671
 20
-950.99999999999955
 30
0.0
 11
-473.29714978130431
 21
-976.00622558593716
 31
0.0
  0
LINE
  5
87
  8
DIMNSIONS
  6
CONTINUOUS
 62
     7
 10
-479.99754773280671
 20
-950.99999999999955
 30
0.0
 11
-486.6979456843091
 21
-976.00622558593716
 31
0.0
  0
LINE
  5
88
  8
DIMNSIONS
  6
CONTINUOUS
 62
     7
 10
-479.99754773280671
 20
-950.0
 30
0.0
 11
-479.99754773280671
 21
-900.0
 31
0.0
  0
LINE
  5
89
  8
DIMNSIONS
  6
CONTINUOUS
 62
     7
 10
-479.99754773280671
 20
-950.0
 30
0.0
 11
-486.6979456843091
 21
-924.99377441406227
 31
0.0
  0
LINE
  5
8A
  8
DIMNSIONS
  6
CONTINUOUS
 62
     7
 10
-479.99754773280671
 20
-950.0
 30
0.0
 11
-473.29714978130431
 21
-924.99377441406227
 31
0.0
  0
TEXT
  5
8B
  8
DIMNSIONS
 62
     7
 10
-488.43643662169569
 20
-1025.1723632812491
 30
0.0
 40
27.147352430555561
  1
1.0
 50
90.0
 41
0.7
 11
-515.58378905225118
 21
-1025.1723632812491
 31
0.0
 73
     3
  0
LINE
  5
8C
  8
DIMNSIONS
  6
CONTINUOUS
 62
     7
 10
-445.50000000000023
 20
-256.37051564858598
 30
0.0
 11
-445.50000000000023
 21
-338.00397075024642
 31
0.0
  0
LINE
  5
8D
  8
DIMNSIONS
  6
CONTINUOUS
 62
     7
 10
-354.50000000000023
 20
-256.37051564858598
 30
0.0
 11
-354.50000000000023
 21
-338.00397075024642
 31
0.0
  0
LINE
  5
8E
  8
DIMNSIONS
  6
CONTINUOUS
 62
     7
 10
-445.50000000000023
 20
-318.00397075024642
 30
0.0
 11
-354.50000000000023
 21
-318.00397075024642
 31
0.0
  0
LINE
  5
8F
  8
DIMNSIONS
  6
CONTINUOUS
 62
     7
 10
-445.50000000000023
 20
-318.00397075024642
 30
0.0
 11
-420.49377441406273
 21
-311.30357279874391
 31
0.0
  0
LINE
  5
90
  8
DIMNSIONS
  6
CONTINUOUS
 62
     7
 10
-445.50000000000023
 20
-318.00397075024642
 30
0.0
 11
-420.49377441406273
 21
-324.70436870174882
 31
0.0
  0
LINE
  5
91
  8
DIMNSIONS
  6
CONTINUOUS
 62
     7
 10
-354.50000000000023
 20
-318.00397075024642
 30
0.0
 11
-379.50622558593773
 21
-324.70436870174882
 31
0.0
  0
LINE
  5
92
  8
DIMNSIONS
  6
CONTINUOUS
 62
     7
 10
-354.50000000000023
 20
-318.00397075024642
 30
0.0
 11
-379.50622558593773
 21
-311.30357279874391
 31
0.0
  0
TEXT
  5
93
  8
DIMNSIONS
 62
     7
 10
-435.27777777777811
 20
-309.56508186135761
 30
0.0
 40
27.147352430555561
  1
91.0
 41
0.7
 11
-435.27777777777811
 21
-282.41772943080201
 31
0.0
 73
     3
  0
LINE
  5
94
  8
DIMNSIONS
  6
CONTINUOUS
 62
     7
 10
-442.00000000000011
 20
-95.837747084435591
 30
0.0
 11
-442.00000000000011
 21
-48.00397075024636
 31
0.0
  0
LINE
  5
95
  8
DIMNSIONS
  6
CONTINUOUS
 62
     7
 10
-358.00000000000023
 20
-95.837747084435591
 30
0.0
 11
-358.00000000000023
 21
-48.00397075024636
 31
0.0
  0
LINE
  5
96
  8
DIMNSIONS
  6
CONTINUOUS
 62
     7
 10
-442.00000000000011
 20
-68.003970750246367
 30
0.0
 11
-358.00000000000023
 21
-68.003970750246367
 31
0.0
  0
LINE
  5
97
  8
DIMNSIONS
  6
CONTINUOUS
 62
     7
 10
-442.00000000000011
 20
-68.003970750246367
 30
0.0
 11
-416.99377441406261
 21
-61.303572798743929
 31
0.0
  0
LINE
  5
98
  8
DIMNSIONS
  6
CONTINUOUS
 62
     7
 10
-442.00000000000011
 20
-68.003970750246367
 30
0.0
 11
-416.99377441406261
 21
-74.704368701748777
 31
0.0
  0
LINE
  5
99
  8
DIMNSIONS
  6
CONTINUOUS
 62
     7
 10
-358.00000000000023
 20
-68.003970750246367
 30
0.0
 11
-383.00622558593773
 21
-74.704368701748805
 31
0.0
  0
LINE
  5
9A
  8
DIMNSIONS
  6
CONTINUOUS
 62
     7
 10
-358.00000000000023
 20
-68.003970750246367
 30
0.0
 11
-383.00622558593773
 21
-61.303572798743929
 31
0.0
  0
TEXT
  5
9B
  8
DIMNSIONS
 62
     7
 10
-435.27777777777789
 20
-59.565081861357477
 30
0.0
 40
27.147352430555561
  1
84.0
 41
0.7
 11
-435.27777777777789
 21
-32.41772943080192
 31
0.0
 73
     3
  0
LINE
  5
9C
  8
DIMNSIONS
  6
CONTINUOUS
 62
     7
 10
-453.49999999999949
 20
-950.99999999999955
 30
0.0
 11
-570.0
 21
-950.99999999999955
 31
0.0
  0
LINE
  5
9D
  8
DIMNSIONS
  6
CONTINUOUS
 62
     7
 10
-419.99754773283252
 20
-414.99999999999949
 30
0.0
 11
-570.0
 21
-414.99999999999949
 31
0.0
  0
LINE
  5
9E
  8
DIMNSIONS
  6
CONTINUOUS
 62
     7
 10
-550.0
 20
-950.99999999999955
 30
0.0
 11
-550.0
 21
-414.99999999999949
 31
0.0
  0
LINE
  5
9F
  8
DIMNSIONS
  6
CONTINUOUS
 62
     7
 10
-550.0
 20
-950.99999999999955
 30
0.0
 11
-556.7003979515024
 21
-925.99377441406205
 31
0.0
  0
LINE
  5
A0
  8
DIMNSIONS
  6
CONTINUOUS
 62
     7
 10
-550.0
 20
-950.99999999999955
 30
0.0
 11
-543.2996020484976
 21
-925.99377441406205
 31
0.0
  0
LINE
  5
A1
  8
DIMNSIONS
  6
CONTINUOUS
 62
     7
 10
-550.0
 20
-414.99999999999949
 30
0.0
 11
-543.2996020484976
 21
-440.0062255859371
 31
0.0
  0
LINE
  5
A2
  8
DIMNSIONS
  6
CONTINUOUS
 62
     7
 10
-550.0
 20
-414.99999999999949
 30
0.0
 11
-556.7003979515024
 21
-440.0062255859371
 31
0.0
  0
TEXT
  5
A3
  8
DIMNSIONS
 62
     7
 10
-558.43888888888898
 20
-709.45833333333303
 30
0.0
 40
27.147352430555561
  1
536
 50
90.0
 41
0.7
 11
-585.58624131944453
 21
-709.45833333333303
 31
0.0
 73
     3
  0
LINE
  5
A4
  8
DIMNSIONS
  6
CONTINUOUS
 62
     7
 10
-434.49999999999989
 20
-250.00000000000011
 30
0.0
 11
-570.0
 21
-250.00000000000011
 31
0.0
  0
LINE
  5
A5
  8
DIMNSIONS
  6
CONTINUOUS
 62
     7
 10
-421.99754773280671
 20
-108.0043601729981
 30
0.0
 11
-570.0
 21
-108.0043601729981
 31
0.0
  0
LINE
  5
A6
  8
DIMNSIONS
  6
CONTINUOUS
 62
     7
 10
-550.0
 20
-250.00000000000011
 30
0.0
 11
-550.0
 21
-108.0043601729981
 31
0.0
  0
LINE
  5
A7
  8
DIMNSIONS
  6
CONTINUOUS
 62
     7
 10
-550.0
 20
-250.00000000000011
 30
0.0
 11
-556.7003979515024
 21
-224.99377441406261
 31
0.0
  0
LINE
  5
A8
  8
DIMNSIONS
  6
CONTINUOUS
 62
     7
 10
-550.0
 20
-250.00000000000011
 30
0.0
 11
-543.2996020484976
 21
-224.99377441406261
 31
0.0
  0
LINE
  5
A9
  8
DIMNSIONS
  6
CONTINUOUS
 62
     7
 10
-550.0
 20
-108.0043601729981
 30
0.0
 11
-543.2996020484976
 21
-133.0105857589356
 31
0.0
  0
LINE
  5
AA
  8
DIMNSIONS
  6
CONTINUOUS
 62
     7
 10
-550.0
 20
-108.0043601729981
 30
0.0
 11
-556.7003979515024
 21
-133.0105857589356
 31
0.0
  0
TEXT
  5
AB
  8
DIMNSIONS
 62
     7
 10
-558.43888888888898
 20
-205.46051341983241
 30
0.0
 40
27.147352430555561
  1
142
 50
90.0
 41
0.7
 11
-585.58624131944453
 21
-205.46051341983241
 31
0.0
 73
     3
  0
TEXT
  5
AC
  8
DATA
 62
     7
 10
499.99999997499992
 20
-1156.904764942331
 30
0.0
 40
24.432617186278371
  1
CGN521 STS
 41
0.7
 11
499.99999997499992
 21
-1132.472147756052
 31
0.0
 73
     3
  0
TEXT
  5
AD
  8
DATA
 62
     7
 10
499.99999997499992
 20
-1084.404764945956
 30
0.0
 40
24.432617186278371
  1
AKG
 41
0.7
 11
499.99999997499992
 21
-1059.9721477596779
 31
0.0
 73
     3
  0
TEXT
  5
AE
  8
DATA
 62
     7
 10
-874.99999995624989
 20
-1189.4508871629259
 30
0.0
 40
19.00314670043873
  1
※仕様及び外観は予告なく変更されることがあります。
 41
0.7
 11
-874.99999995624989
 21
-1170.447740462487
 31
0.0
 73
     3
  0
TEXT
  5
AF
  8
DATA
 62
     7
 10
-874.99999995624989
 20
-1214.1453316061361
 30
0.0
 40
19.00314670043873
  1
　また、同一商品でも若干の個体差があることがあります。ご了承ください。
 41
0.7
 11
-874.99999995624989
 21
-1195.1421849056969
 31
0.0
 73
     3
  0
LINE
  5
B0
  8
DATA
  6
CONTINUOUS
 62
     7
 10
-400.00000000000023
 20
-250.0
 30
0.0
 11
-414.50000000000011
 21
-250.0
 31
0.0
  0
ARC
  5
B1
  8
DATA
  6
CONTINUOUS
 62
     7
 10
-400.00000000000023
 20
-565.57541703474317
 30
0.0
 40
457.57541703474323
 50
90.000000000000028
 51
94.099936026049207
  0
ARC
  5
B2
  8
DATA
  6
CONTINUOUS
 62
     7
 10
-431.99999999999949
 20
-119.1454069168923
 30
0.0
 40
10.000000000000011
 50
94.099936026049178
 51
180.0
  0
ARC
  5
B3
  8
DATA
  6
CONTINUOUS
 62
     7
 10
-409.25
 20
-161.75000000000011
 30
0.0
 40
88.406023550434469
 50
260.72413480766909
 51
266.5954817005113
  0
ARC
  5
B4
  8
DATA
  6
CONTINUOUS
 62
     7
 10
-420.38153750269402
 20
-223.57012708647679
 30
0.0
 40
28.318763525349699
 50
214.38115370759539
 51
228.78780269440571
  0
ARC
  5
B5
  8
DATA
  6
CONTINUOUS
 62
     7
 10
-432.45084792032151
 20
-237.35086883504141
 30
0.0
 40
9.9999999999999982
 50
228.7878026944054
 51
256.23011294207453
  0
ARC
  5
B6
  8
DATA
  6
CONTINUOUS
 62
     7
 10
-415.56249999999989
 20
-168.43750000000011
 30
0.0
 40
80.952580641385254
 50
256.23011294207521
 51
264.37303742542912
  0
ARC
  5
B7
  8
DATA
  6
CONTINUOUS
 62
     7
 10
-431.49836776253107
 20
-232.7854811089332
 30
0.0
 40
14.00327546211769
 50
180.87775948608009
 51
208.94015381583301
  0
ARC
  5
B8
  8
DATA
  6
CONTINUOUS
 62
     7
 10
-1672.4575394506221
 20
-154.57863822326061
 30
0.0
 40
1229.461147656828
 50
356.3428974876303
 51
0.1388116787327931
  0
LINE
  5
B9
  8
DATA
  6
CONTINUOUS
 62
     7
 10
-442.99999999999972
 20
-151.5
 30
0.0
 11
-441.99999999999972
 21
-118.9999999999999
 31
0.0
  0
LINE
  5
BA
  8
DATA
  6
CONTINUOUS
 62
     7
 10
-400.00000000000023
 20
-250.0
 30
0.0
 11
-414.50000000000011
 21
-250.0
 31
0.0
  0
LINE
  5
BB
  8
DATA
  6
CONTINUOUS
 62
     7
 10
-399.00000000000023
 20
-107.9999999999998
 30
0.0
 11
-400.0000000000004
 21
-107.9999999999998
 31
0.0
  0
LINE
  5
BC
  8
DATA
  6
CONTINUOUS
 62
     7
 10
-400.00000000000023
 20
-250.0
 30
0.0
 11
-385.50000000000023
 21
-250.0
 31
0.0
  0
ARC
  5
BD
  8
DATA
  6
CONTINUOUS
 62
     7
 10
-400.00000000000023
 20
-565.57541703474317
 30
0.0
 40
457.57541703474323
 50
85.900063973950694
 51
89.999999999999986
  0
ARC
  5
BE
  8
DATA
  6
CONTINUOUS
 62
     7
 10
-368.00000000000028
 20
-119.1454069168923
 30
0.0
 40
10.0
 50
0.0
 51
85.900063973950807
  0
ARC
  5
BF
  8
DATA
  6
CONTINUOUS
 62
     7
 10
-390.7500000000004
 20
-161.75000000000011
 30
0.0
 40
88.406023550434554
 50
273.40451829948881
 51
279.27586519233108
  0
ARC
  5
C0
  8
DATA
  6
CONTINUOUS
 62
     7
 10
-379.6184624973061
 20
-223.57012708647679
 30
0.0
 40
28.318763525349841
 50
311.21219730559483
 51
325.61884629240478
  0
ARC
  5
C1
  8
DATA
  6
CONTINUOUS
 62
     7
 10
-367.54915207967832
 20
-237.35086883504141
 30
0.0
 40
10.00000000000002
 50
283.76988705792547
 51
311.21219730559449
  0
ARC
  5
C2
  8
DATA
  6
CONTINUOUS
 62
     7
 10
-384.4375000000004
 20
-168.43750000000011
 30
0.0
 40
80.952580641385254
 50
275.62696257457111
 51
283.76988705792508
  0
ARC
  5
C3
  8
DATA
  6
CONTINUOUS
 62
     7
 10
-368.50163223746893
 20
-232.7854811089332
 30
0.0
 40
14.003275462117569
 50
331.05984618416687
 51
359.12224051391991
  0
ARC
  5
C4
  8
DATA
  6
CONTINUOUS
 62
     7
 10
872.4575394506478
 20
-154.57863822326061
 30
0.0
 40
1229.461147656853
 50
179.86118832126721
 51
183.65710251236959
  0
LINE
  5
C5
  8
DATA
  6
CONTINUOUS
 62
     7
 10
-357.0000000000004
 20
-151.5
 30
0.0
 11
-358.00000000000023
 21
-118.9999999999999
 31
0.0
  0
LINE
  5
C6
  8
DATA
  6
CONTINUOUS
 62
     7
 10
-400.00000000000023
 20
-250.0
 30
0.0
 11
-385.50000000000023
 21
-250.0
 31
0.0
  0
LINE
  5
C7
  8
DATA
  6
CONTINUOUS
 62
     7
 10
-401.00000000000023
 20
-107.9999999999998
 30
0.0
 11
-400.00000000000011
 21
-107.9999999999998
 31
0.0
  0
LINE
  5
C8
  8
DATA
  6
CONTINUOUS
 62
     7
 10
-413.5
 20
-169.277318716633
 30
0.0
 11
-413.5
 21
-132.77731871663281
 31
0.0
  0
LINE
  5
C9
  8
DATA
  6
CONTINUOUS
 62
     7
 10
-386.5000000000004
 20
-169.277318716633
 30
0.0
 11
-413.5
 21
-169.277318716633
 31
0.0
  0
LINE
  5
CA
  8
DATA
  6
CONTINUOUS
 62
     7
 10
-386.5000000000004
 20
-132.77731871663281
 30
0.0
 11
-386.5000000000004
 21
-169.277318716633
 31
0.0
  0
LINE
  5
CB
  8
DATA
  6
CONTINUOUS
 62
     7
 10
-413.5
 20
-132.77731871663281
 30
0.0
 11
-386.5000000000004
 21
-132.77731871663281
 31
0.0
  0
POLYLINE
  5
CC
  8
DATA
  6
CONTINUOUS
 62
     7
 66
     1
 10
0.0
 20
0.0
 30
0.0
 70
   129
  0
VERTEX
  5
5F1
  8
DATA
  6
CONTINUOUS
 62
     7
 10
-410.3300000000001
 20
-137.94731871663291
 30
0.0
 42
-0.4142135623730951
  0
VERTEX
  5
5F2
  8
DATA
  6
CONTINUOUS
 62
     7
 10
-408.3300000000001
 20
-135.94731871663291
 30
0.0
 42
-0.4142135623730951
  0
VERTEX
  5
5F3
  8
DATA
  6
CONTINUOUS
 62
     7
 10
-406.3300000000001
 20
-137.94731871663291
 30
0.0
 42
-0.4142135623730951
  0
VERTEX
  5
5F4
  8
DATA
  6
CONTINUOUS
 62
     7
 10
-408.3300000000001
 20
-139.94731871663291
 30
0.0
 42
-0.4142135623730951
  0
VERTEX
  5
5F5
  8
DATA
  6
CONTINUOUS
 62
     7
 10
-410.3300000000001
 20
-137.94731871663291
 30
0.0
  0
SEQEND
  5
5F6
  8
DATA
  6
CONTINUOUS
 62
     7
  0
POLYLINE
  5
D3
  8
DATA
  6
CONTINUOUS
 62
     7
 66
     1
 10
0.0
 20
0.0
 30
0.0
 70
   129
  0
VERTEX
  5
5F7
  8
DATA
  6
CONTINUOUS
 62
     7
 10
-393.67000000000053
 20
-164.10731871663299
 30
0.0
 42
-0.4142135623730951
  0
VERTEX
  5
5F8
  8
DATA
  6
CONTINUOUS
 62
     7
 10
-391.67000000000053
 20
-162.10731871663299
 30
0.0
 42
-0.4142135623730951
  0
VERTEX
  5
5F9
  8
DATA
  6
CONTINUOUS
 62
     7
 10
-389.67000000000053
 20
-164.10731871663299
 30
0.0
 42
-0.4142135623730951
  0
VERTEX
  5
5FA
  8
DATA
  6
CONTINUOUS
 62
     7
 10
-391.67000000000053
 20
-166.10731871663299
 30
0.0
 42
-0.4142135623730951
  0
VERTEX
  5
5FB
  8
DATA
  6
CONTINUOUS
 62
     7
 10
-393.67000000000053
 20
-164.10731871663299
 30
0.0
  0
SEQEND
  5
5FC
  8
DATA
  6
CONTINUOUS
 62
     7
  0
POLYLINE
  5
DA
  8
DATA
  6
CONTINUOUS
 62
     7
 66
     1
 10
0.0
 20
0.0
 30
0.0
 70
   129
  0
VERTEX
  5
5FD
  8
DATA
  6
CONTINUOUS
 62
     7
 10
-411.18000000000001
 20
-137.94731871663279
 30
0.0
 42
-0.4142135623730921
  0
VERTEX
  5
5FE
  8
DATA
  6
CONTINUOUS
 62
     7
 10
-408.32999999999993
 20
-135.0973187166328
 30
0.0
 42
-0.414213562373101
  0
VERTEX
  5
5FF
  8
DATA
  6
CONTINUOUS
 62
     7
 10
-405.48000000000002
 20
-137.94731871663279
 30
0.0
 42
-0.414213562373098
  0
VERTEX
  5
600
  8
DATA
  6
CONTINUOUS
 62
     7
 10
-408.32999999999993
 20
-140.79731871663279
 30
0.0
 42
-0.4142135623730893
  0
VERTEX
  5
601
  8
DATA
  6
CONTINUOUS
 62
     7
 10
-411.18000000000001
 20
-137.94731871663279
 30
0.0
  0
SEQEND
  5
602
  8
DATA
  6
CONTINUOUS
 62
     7
  0
POLYLINE
  5
E1
  8
DATA
  6
CONTINUOUS
 62
     7
 66
     1
 10
0.0
 20
0.0
 30
0.0
 70
   129
  0
VERTEX
  5
603
  8
DATA
  6
CONTINUOUS
 62
     7
 10
-394.52000000000061
 20
-164.10731871663299
 30
0.0
 42
-0.4142135623730951
  0
VERTEX
  5
604
  8
DATA
  6
CONTINUOUS
 62
     7
 10
-391.67000000000053
 20
-161.25731871663291
 30
0.0
 42
-0.4142135623730951
  0
VERTEX
  5
605
  8
DATA
  6
CONTINUOUS
 62
     7
 10
-388.82000000000062
 20
-164.10731871663299
 30
0.0
 42
-0.4142135623730951
  0
VERTEX
  5
606
  8
DATA
  6
CONTINUOUS
 62
     7
 10
-391.67000000000053
 20
-166.95731871663301
 30
0.0
 42
-0.4142135623730951
  0
VERTEX
  5
607
  8
DATA
  6
CONTINUOUS
 62
     7
 10
-394.52000000000061
 20
-164.10731871663299
 30
0.0
  0
SEQEND
  5
608
  8
DATA
  6
CONTINUOUS
 62
     7
  0
LINE
  5
E8
  8
DATA
  6
CONTINUOUS
 62
     7
 10
-409.3300000000001
 20
-137.94731871663291
 30
0.0
 11
-407.3300000000001
 21
-137.94731871663291
 31
0.0
  0
LINE
  5
E9
  8
DATA
  6
CONTINUOUS
 62
     7
 10
-408.3300000000001
 20
-138.94731871663291
 30
0.0
 11
-408.3300000000001
 21
-136.94731871663291
 31
0.0
  0
LINE
  5
EA
  8
DATA
  6
CONTINUOUS
 62
     7
 10
-392.67000000000053
 20
-164.10731871663299
 30
0.0
 11
-390.67000000000053
 21
-164.10731871663299
 31
0.0
  0
LINE
  5
EB
  8
DATA
  6
CONTINUOUS
 62
     7
 10
-391.67000000000053
 20
-165.10731871663299
 30
0.0
 11
-391.67000000000053
 21
-163.10731871663299
 31
0.0
  0
LINE
  5
EC
  8
DATA
  6
CONTINUOUS
 62
     7
 10
-414.5
 20
-170.527318716633
 30
0.0
 11
-414.5
 21
-131.52731871663281
 31
0.0
  0
LINE
  5
ED
  8
DATA
  6
CONTINUOUS
 62
     7
 10
-385.5000000000004
 20
-170.527318716633
 30
0.0
 11
-414.5
 21
-170.527318716633
 31
0.0
  0
LINE
  5
EE
  8
DATA
  6
CONTINUOUS
 62
     7
 10
-385.5000000000004
 20
-131.52731871663281
 30
0.0
 11
-385.5000000000004
 21
-170.527318716633
 31
0.0
  0
LINE
  5
EF
  8
DATA
  6
CONTINUOUS
 62
     7
 10
-414.5
 20
-131.52731871663281
 30
0.0
 11
-385.5000000000004
 21
-131.52731871663281
 31
0.0
  0
ARC
  5
F0
  8
DATA
  6
CONTINUOUS
 62
     7
 10
-396.82702020202049
 20
-38.982323232320681
 30
0.0
 40
203.202848549724
 50
263.06852040815579
 51
267.55379346094998
  0
ARC
  5
F1
  8
DATA
  6
CONTINUOUS
 62
     7
 10
-294.07617262078679
 20
-226.4685172847351
 30
0.0
 40
131.14673225856399
 50
171.32297580072739
 51
184.6317138347849
  0
ARC
  5
F2
  8
DATA
  6
CONTINUOUS
 62
     7
 10
-359.35000000000008
 20
-217.15384615384639
 30
0.0
 40
65.177639035005555
 50
156.29953223100549
 51
170.85951084501519
  0
ARC
  5
F3
  8
DATA
  6
CONTINUOUS
 62
     7
 10
-404.3332044580759
 20
-200.13082483491419
 30
0.0
 40
17.32628514884016
 50
98.853943391762144
 51
148.0236243761386
  0
ARC
  5
F4
  8
DATA
  6
CONTINUOUS
 62
     7
 10
-420.8076862194045
 20
-236.73569727898661
 30
0.0
 40
3.9999999999999032
 50
184.63171383478519
 51
260.66010789762453
  0
ARC
  5
F5
  8
DATA
  6
CONTINUOUS
 62
     7
 10
-417.48882978723373
 20
-216.55675531914829
 30
0.0
 40
24.450049061943169
 50
260.66010789762419
 51
260.91377002929562
  0
ARC
  5
F6
  8
DATA
  6
CONTINUOUS
 62
     7
 10
-403.17297979797991
 20
-38.982323232320681
 30
0.0
 40
203.20284854972411
 50
272.44620653905002
 51
276.93147959184438
  0
ARC
  5
F7
  8
DATA
  6
CONTINUOUS
 62
     7
 10
-505.92382737921389
 20
-226.4685172847351
 30
0.0
 40
131.14673225856461
 50
355.36828616521512
 51
8.6770241992725232
  0
ARC
  5
F8
  8
DATA
  6
CONTINUOUS
 62
     7
 10
-440.64999999999958
 20
-217.15384615384639
 30
0.0
 40
65.177639035005214
 50
9.1404891549847296
 51
23.700467768994521
  0
ARC
  5
F9
  8
DATA
  6
CONTINUOUS
 62
     7
 10
-395.6667955419245
 20
-200.13082483491419
 30
0.0
 40
17.3262851488401
 50
31.976375623860921
 51
81.14605660823787
  0
ARC
  5
FA
  8
DATA
  6
CONTINUOUS
 62
     7
 10
-379.19231378059573
 20
-236.73569727898661
 30
0.0
 40
4.0000000000000009
 50
279.3398921023761
 51
355.36828616521512
  0
ARC
  5
FB
  8
DATA
  6
CONTINUOUS
 62
     7
 10
-382.51117021276627
 20
-216.55675531914829
 30
0.0
 40
24.450049061943162
 50
279.08622997070472
 51
279.3398921023761
  0
ARC
  5
FC
  8
DATA
  6
CONTINUOUS
 62
     7
 10
-400.23873829375151
 20
-172.0550908581898
 30
0.0
 40
70.142506296807838
 50
265.69830771793818
 51
274.69161316599741
  0
LINE
  5
FD
  8
DATA
  6
CONTINUOUS
 62
     7
 10
-407.0
 20
-183.01100127868281
 30
0.0
 11
-393.0000000000004
 21
-183.01100127868281
 31
0.0
  0
TEXT
  5
FE
  8
DATA
 62
     7
 10
-403.9791297137557
 20
-199.90402240134929
 30
0.0
 40
4.3435763888888879
  1
AKG
 41
0.7
 72
     1
 11
-399.92512508412608
 21
-197.73223420690479
 31
0.0
 73
     2
  0
TEXT
  5
FF
  8
DATA
 62
     7
 10
-409.88527989174611
 20
-205.50590438555361
 30
0.0
 40
3.2576822916666659
  1
CGN521STS
 41
0.7
 72
     1
 11
-400.38370654105159
 21
-203.87706323972029
 31
0.0
 73
     2
  0
ARC
  5
100
  8
DATA
  6
CONTINUOUS
 62
     7
 10
-1169.2008169810731
 20
-108.9474874110775
 30
0.0
 40
746.70092091058552
 50
355.31008935921409
 51
0.0302296930815373
  0
ARC
  5
101
  8
DATA
  6
CONTINUOUS
 62
     7
 10
13.045005803781461
 20
-217.69275902095069
 30
0.0
 40
440.63366459300971
 50
173.78631768462981
 51
184.0284144171311
  0
ARC
  5
102
  8
DATA
  6
CONTINUOUS
 62
     7
 10
369.20081698106111
 20
-108.9474874110775
 30
0.0
 40
746.70092091057415
 50
179.96977030691849
 51
184.689910640786
  0
ARC
  5
103
  8
DATA
  6
CONTINUOUS
 62
     7
 10
-813.04500580378135
 20
-217.69275902095069
 30
0.0
 40
440.63366459300971
 50
355.97158558286878
 51
6.2136823153701934
  0
LINE
  5
104
  8
DATA
  6
CONTINUOUS
 62
     7
 10
387.21000668254402
 20
-250.0000044751126
 30
0.0
 11
400.0
 21
-250.0000044751126
 31
0.0
  0
LINE
  5
105
  8
DATA
  6
CONTINUOUS
 62
     7
 10
370.24200165812078
 20
-108.00000447511241
 30
0.0
 11
400.0
 21
-108.00000447511241
 31
0.0
  0
LINE
  5
106
  8
DATA
  6
CONTINUOUS
 62
     7
 10
400.0
 20
-250.00000447511269
 30
0.0
 11
400.0
 21
-108.00000447511241
 31
0.0
  0
LINE
  5
107
  8
DATA
  6
CONTINUOUS
 62
     7
 10
359.00000000000023
 20
-170.52732319174561
 30
0.0
 11
359.00000000000023
 21
-131.52732319174541
 31
0.0
  0
LINE
  5
108
  8
DATA
  6
CONTINUOUS
 62
     7
 10
-416.37068257567319
 20
509.0
 30
0.0
 11
-385.5000000000004
 21
509.0
 31
0.0
  0
LINE
  5
109
  8
DATA
  6
CONTINUOUS
 62
     7
 10
-445.4975477328324
 20
550.0
 30
0.0
 11
-354.50245226716771
 21
550.0
 31
0.0
  0
LINE
  5
10A
  8
DATA
  6
CONTINUOUS
 62
     7
 10
-445.4975477328324
 20
522.97688222293698
 30
0.0
 11
-445.4975477328324
 21
550.0
 31
0.0
  0
LINE
  5
10B
  8
DATA
  6
CONTINUOUS
 62
     7
 10
-354.50245226716771
 20
522.97688222293698
 30
0.0
 11
-354.50245226716771
 21
550.0
 31
0.0
  0
LINE
  5
10C
  8
DATA
  6
CONTINUOUS
 62
     7
 10
-439.99999999999972
 20
532.0
 30
0.0
 11
-439.99999999999972
 21
550.0
 31
0.0
  0
LINE
  5
10D
  8
DATA
  6
CONTINUOUS
 62
     7
 10
-360.0000000000004
 20
550.0
 30
0.0
 11
-360.0000000000004
 21
532.0
 31
0.0
  0
LINE
  5
10E
  8
DATA
  6
CONTINUOUS
 62
     7
 10
-445.4975477328324
 20
532.0
 30
0.0
 11
-424.49999999999972
 21
532.0
 31
0.0
  0
LINE
  5
10F
  8
DATA
  6
CONTINUOUS
 62
     7
 10
-424.49999999999972
 20
532.0
 30
0.0
 11
-421.779879122907
 21
532.0
 31
0.0
  0
LINE
  5
110
  8
DATA
  6
CONTINUOUS
 62
     7
 10
-375.50000000000028
 20
532.0
 30
0.0
 11
-354.50245226716771
 21
532.0
 31
0.0
  0
LINE
  5
111
  8
DATA
  6
CONTINUOUS
 62
     7
 10
-378.220120877093
 20
532.0
 30
0.0
 11
-375.50000000000028
 21
532.0
 31
0.0
  0
POLYLINE
  5
112
  8
DATA
  6
CONTINUOUS
 62
     7
 66
     1
 10
0.0
 20
0.0
 30
0.0
 70
   129
  0
VERTEX
  5
609
  8
DATA
  6
CONTINUOUS
 62
     7
 10
-405.52297981737672
 20
536.29894706060963
 30
0.0
 42
-0.4142135623730951
  0
VERTEX
  5
60A
  8
DATA
  6
CONTINUOUS
 62
     7
 10
-404.02297981737678
 20
537.79894706060963
 30
0.0
 42
-0.4142135623731062
  0
VERTEX
  5
60B
  8
DATA
  6
CONTINUOUS
 62
     7
 10
-402.52297981737672
 20
536.29894706060963
 30
0.0
 42
-0.4142135623730951
  0
VERTEX
  5
60C
  8
DATA
  6
CONTINUOUS
 62
     7
 10
-404.02297981737678
 20
534.79894706060963
 30
0.0
 42
-0.414213562373084
  0
VERTEX
  5
60D
  8
DATA
  6
CONTINUOUS
 62
     7
 10
-405.52297981737672
 20
536.29894706060963
 30
0.0
  0
SEQEND
  5
60E
  8
DATA
  6
CONTINUOUS
 62
     7
  0
POLYLINE
  5
119
  8
DATA
  6
CONTINUOUS
 62
     7
 66
     1
 10
0.0
 20
0.0
 30
0.0
 70
   129
  0
VERTEX
  5
60F
  8
DATA
  6
CONTINUOUS
 62
     7
 10
-397.52297981737689
 20
536.29894706060963
 30
0.0
 42
-0.4142135623730951
  0
VERTEX
  5
610
  8
DATA
  6
CONTINUOUS
 62
     7
 10
-396.02297981737678
 20
537.79894706060963
 30
0.0
 42
-0.4142135623731062
  0
VERTEX
  5
611
  8
DATA
  6
CONTINUOUS
 62
     7
 10
-394.52297981737678
 20
536.29894706060963
 30
0.0
 42
-0.4142135623730951
  0
VERTEX
  5
612
  8
DATA
  6
CONTINUOUS
 62
     7
 10
-396.02297981737678
 20
534.79894706060963
 30
0.0
 42
-0.414213562373084
  0
VERTEX
  5
613
  8
DATA
  6
CONTINUOUS
 62
     7
 10
-397.52297981737689
 20
536.29894706060963
 30
0.0
  0
SEQEND
  5
614
  8
DATA
  6
CONTINUOUS
 62
     7
  0
POLYLINE
  5
120
  8
DATA
  6
CONTINUOUS
 62
     7
 66
     1
 10
0.0
 20
0.0
 30
0.0
 70
   129
  0
VERTEX
  5
615
  8
DATA
  6
CONTINUOUS
 62
     7
 10
-401.52297981737672
 20
531.29894706060963
 30
0.0
 42
-0.4142135623730951
  0
VERTEX
  5
616
  8
DATA
  6
CONTINUOUS
 62
     7
 10
-400.02297981737678
 20
532.79894706060963
 30
0.0
 42
-0.414213562373084
  0
VERTEX
  5
617
  8
DATA
  6
CONTINUOUS
 62
     7
 10
-398.52297981737678
 20
531.29894706060963
 30
0.0
 42
-0.4142135623730951
  0
VERTEX
  5
618
  8
DATA
  6
CONTINUOUS
 62
     7
 10
-400.02297981737678
 20
529.79894706060963
 30
0.0
 42
-0.4142135623731062
  0
VERTEX
  5
619
  8
DATA
  6
CONTINUOUS
 62
     7
 10
-401.52297981737672
 20
531.29894706060963
 30
0.0
  0
SEQEND
  5
61A
  8
DATA
  6
CONTINUOUS
 62
     7
  0
POLYLINE
  5
127
  8
DATA
  6
CONTINUOUS
 62
     7
 66
     1
 10
0.0
 20
0.0
 30
0.0
 70
   129
  0
VERTEX
  5
61B
  8
DATA
  6
CONTINUOUS
 62
     7
 10
-410.02297981737672
 20
525.95810772104437
 30
0.0
 42
-0.4142135623730951
  0
VERTEX
  5
61C
  8
DATA
  6
CONTINUOUS
 62
     7
 10
-408.02297981737678
 20
527.95810772104426
 30
0.0
 42
-0.4142135623731035
  0
VERTEX
  5
61D
  8
DATA
  6
CONTINUOUS
 62
     7
 10
-406.02297981737672
 20
525.95810772104437
 30
0.0
 42
-0.4142135623730951
  0
VERTEX
  5
61E
  8
DATA
  6
CONTINUOUS
 62
     7
 10
-408.02297981737678
 20
523.95810772104426
 30
0.0
 42
-0.4142135623730868
  0
VERTEX
  5
61F
  8
DATA
  6
CONTINUOUS
 62
     7
 10
-410.02297981737672
 20
525.95810772104437
 30
0.0
  0
SEQEND
  5
620
  8
DATA
  6
CONTINUOUS
 62
     7
  0
POLYLINE
  5
12E
  8
DATA
  6
CONTINUOUS
 62
     7
 66
     1
 10
0.0
 20
0.0
 30
0.0
 70
   129
  0
VERTEX
  5
621
  8
DATA
  6
CONTINUOUS
 62
     7
 10
-394.02297981737701
 20
543.95810772104426
 30
0.0
 42
-0.4142135623730951
  0
VERTEX
  5
622
  8
DATA
  6
CONTINUOUS
 62
     7
 10
-392.02297981737701
 20
545.95810772104426
 30
0.0
 42
-0.4142135623730868
  0
VERTEX
  5
623
  8
DATA
  6
CONTINUOUS
 62
     7
 10
-390.02297981737701
 20
543.95810772104426
 30
0.0
 42
-0.4142135623730951
  0
VERTEX
  5
624
  8
DATA
  6
CONTINUOUS
 62
     7
 10
-392.02297981737701
 20
541.95810772104437
 30
0.0
 42
-0.4142135623731035
  0
VERTEX
  5
625
  8
DATA
  6
CONTINUOUS
 62
     7
 10
-394.02297981737701
 20
543.95810772104426
 30
0.0
  0
SEQEND
  5
626
  8
DATA
  6
CONTINUOUS
 62
     7
  0
LINE
  5
135
  8
DATA
  6
CONTINUOUS
 62
     7
 10
-406.77297981737672
 20
525.95810772104437
 30
0.0
 11
-409.27297981737678
 21
525.95810772104437
 31
0.0
  0
LINE
  5
136
  8
DATA
  6
CONTINUOUS
 62
     7
 10
-408.02297981737678
 20
527.20810772104426
 30
0.0
 11
-408.02297981737678
 21
524.70810772104426
 31
0.0
  0
LINE
  5
137
  8
DATA
  6
CONTINUOUS
 62
     7
 10
-390.77297981737712
 20
543.95810772104426
 30
0.0
 11
-393.27297981737689
 21
543.95810772104426
 31
0.0
  0
LINE
  5
138
  8
DATA
  6
CONTINUOUS
 62
     7
 10
-392.02297981737712
 20
545.20810772104426
 30
0.0
 11
-392.02297981737712
 21
542.70810772104426
 31
0.0
  0
LINE
  5
139
  8
DATA
  6
CONTINUOUS
 62
     7
 10
-388.92297981737698
 20
544.95810772104426
 30
0.0
 11
-388.92297981737698
 21
524.95810772104426
 31
0.0
  0
LINE
  5
13A
  8
DATA
  6
CONTINUOUS
 62
     7
 10
-409.1229798173768
 20
546.95810772104437
 30
0.0
 11
-390.92297981737693
 21
546.95810772104437
 31
0.0
  0
LINE
  5
13B
  8
DATA
  6
CONTINUOUS
 62
     7
 10
-411.12297981737652
 20
524.95810772104426
 30
0.0
 11
-411.12297981737652
 21
544.95810772104426
 31
0.0
  0
LINE
  5
13C
  8
DATA
  6
CONTINUOUS
 62
     7
 10
-390.92297981737693
 20
522.95810772104426
 30
0.0
 11
-409.1229798173768
 21
522.95810772104426
 31
0.0
  0
ARC
  5
13D
  8
DATA
  6
CONTINUOUS
 62
     7
 10
-390.92297981737693
 20
524.95810772104426
 30
0.0
 40
2.0
 50
270.0
 51
0.0
  0
ARC
  5
13E
  8
DATA
  6
CONTINUOUS
 62
     7
 10
-390.92297981737693
 20
544.95810772104426
 30
0.0
 40
2.0
 50
0.0
 51
90.0
  0
ARC
  5
13F
  8
DATA
  6
CONTINUOUS
 62
     7
 10
-409.1229798173768
 20
544.95810772104426
 30
0.0
 40
2.0
 50
90.0
 51
180.0
  0
ARC
  5
140
  8
DATA
  6
CONTINUOUS
 62
     7
 10
-409.1229798173768
 20
524.95810772104426
 30
0.0
 40
1.9999999999998861
 50
180.0
 51
270.0
  0
LINE
  5
141
  8
DATA
  6
CONTINUOUS
 62
     7
 10
-423.49999999999972
 20
550.0
 30
0.0
 11
-423.49999999999972
 21
533.0
 31
0.0
  0
LINE
  5
142
  8
DATA
  6
CONTINUOUS
 62
     7
 10
-420.49999999999977
 20
550.0
 30
0.0
 11
-420.78001448738928
 21
532.9835467133687
 31
0.0
  0
LINE
  5
143
  8
DATA
  6
CONTINUOUS
 62
     7
 10
-376.50000000000028
 20
550.0
 30
0.0
 11
-376.50000000000028
 21
533.0
 31
0.0
  0
LINE
  5
144
  8
DATA
  6
CONTINUOUS
 62
     7
 10
-379.50000000000028
 20
550.0
 30
0.0
 11
-379.21998551261078
 21
532.9835467133687
 31
0.0
  0
LINE
  5
145
  8
DATA
  6
CONTINUOUS
 62
     7
 10
-433.4999999999996
 20
550.0
 30
0.0
 11
-433.4999999999996
 21
551.0
 31
0.0
  0
LINE
  5
146
  8
DATA
  6
CONTINUOUS
 62
     7
 10
-425.49999999999972
 20
551.0
 30
0.0
 11
-425.49999999999972
 21
550.0
 31
0.0
  0
LINE
  5
147
  8
DATA
  6
CONTINUOUS
 62
     7
 10
-433.4999999999996
 20
551.0
 30
0.0
 11
-425.49999999999972
 21
551.0
 31
0.0
  0
LINE
  5
148
  8
DATA
  6
CONTINUOUS
 62
     7
 10
-366.5000000000004
 20
550.0
 30
0.0
 11
-366.5000000000004
 21
551.0
 31
0.0
  0
LINE
  5
149
  8
DATA
  6
CONTINUOUS
 62
     7
 10
-374.50000000000028
 20
551.0
 30
0.0
 11
-374.50000000000028
 21
550.0
 31
0.0
  0
LINE
  5
14A
  8
DATA
  6
CONTINUOUS
 62
     7
 10
-366.5000000000004
 20
551.0
 30
0.0
 11
-374.50000000000028
 21
551.0
 31
0.0
  0
CIRCLE
  5
14B
  8
DATA
  6
CONTINUOUS
 62
     7
 10
-400.02297981737678
 20
534.95810772104426
 30
0.0
 40
8.0000028487246801
  0
LINE
  5
14C
  8
DATA
  6
CONTINUOUS
 62
     7
 10
-414.5
 20
509.0
 30
0.0
 11
-414.5
 21
511.65000000000009
 31
0.0
  0
LINE
  5
14D
  8
DATA
  6
CONTINUOUS
 62
     7
 10
-385.5000000000004
 20
509.0
 30
0.0
 11
-385.5000000000004
 21
511.5846723912
 31
0.0
  0
ARC
  5
14E
  8
DATA
  6
CONTINUOUS
 62
     7
 10
-440.49754773283217
 20
522.97688222293698
 30
0.0
 40
5.0000000000001128
 50
180.0
 51
241.9272718595825
  0
ARC
  5
14F
  8
DATA
  6
CONTINUOUS
 62
     7
 10
-338.2108057857892
 20
714.76257892412013
 30
0.0
 40
222.3576109486373
 50
241.9272718595839
 51
246.02575927091661
  0
LINE
  5
150
  8
DATA
  6
CONTINUOUS
 62
     7
 10
-412.54481829110023
 20
516.0
 30
0.0
 11
-387.45518170890023
 21
516.0
 31
0.0
  0
LINE
  5
151
  8
DATA
  6
CONTINUOUS
 62
     7
 10
-442.55900618856629
 20
519.88473727199585
 30
0.0
 11
-418.20660851369911
 21
516.40272570649245
 31
0.0
  0
ARC
  5
152
  8
DATA
  6
CONTINUOUS
 62
     7
 10
-412.54481829110011
 20
556.0
 30
0.0
 40
39.999999999999908
 50
261.86275554042709
 51
269.99999999999989
  0
ARC
  5
153
  8
DATA
  6
CONTINUOUS
 62
     7
 10
-442.20250865051872
 20
523.28538062283758
 30
0.0
 40
3.41927853417309
 50
199.30459788682569
 51
264.01540637203919
  0
LINE
  5
154
  8
DATA
  6
CONTINUOUS
 62
     7
 10
-385.5000000000004
 20
509.0
 30
0.0
 11
-385.5000000000004
 21
511.65000000000009
 31
0.0
  0
LINE
  5
155
  8
DATA
  6
CONTINUOUS
 62
     7
 10
-414.5
 20
509.0
 30
0.0
 11
-414.5
 21
511.5846723912
 31
0.0
  0
ARC
  5
156
  8
DATA
  6
CONTINUOUS
 62
     7
 10
-359.50245226716771
 20
522.97688222293698
 30
0.0
 40
4.9999999999999947
 50
298.0727281404175
 51
0.0
  0
LINE
  5
157
  8
DATA
  6
CONTINUOUS
 62
     7
 10
-357.44099381143371
 20
519.88473727199585
 30
0.0
 11
-381.79339148630089
 21
516.40272570649245
 31
0.0
  0
ARC
  5
158
  8
DATA
  6
CONTINUOUS
 62
     7
 10
-400.21068646915109
 20
605.14452504581618
 30
0.0
 40
94.644759548199133
 50
261.31636999467639
 51
274.85529585330403
  0
ARC
  5
159
  8
DATA
  6
CONTINUOUS
 62
     7
 10
-387.45518170890023
 20
556.0
 30
0.0
 40
40.0
 50
270.00000000000011
 51
278.1372444595732
  0
ARC
  5
15A
  8
DATA
  6
CONTINUOUS
 62
     7
 10
-357.79749134948128
 20
523.28538062283758
 30
0.0
 40
3.4192785341731442
 50
275.98459362796081
 51
340.695402113174
  0
ARC
  5
15B
  8
DATA
  6
CONTINUOUS
 62
     7
 10
-416.37068257567319
 20
539.00000000000045
 30
0.0
 40
30.000000000000242
 50
246.02575927091689
 51
270.0
  0
ARC
  5
15C
  8
DATA
  6
CONTINUOUS
 62
     7
 10
-383.62931742432693
 20
539.00000000000045
 30
0.0
 40
30.000000000000451
 50
270.0
 51
293.97424072908382
  0
ARC
  5
15D
  8
DATA
  6
CONTINUOUS
 62
     7
 10
-461.78919421421119
 20
714.76257892412013
 30
0.0
 40
222.35761094863761
 50
293.97424072908359
 51
298.07272814041619
  0
LINE
  5
15E
  8
DATA
  6
CONTINUOUS
 62
     7
 10
-407.80000000000013
 20
510.80453972640402
 30
0.0
 11
-407.80000000000013
 21
510.83938514225952
 31
0.0
  0
LINE
  5
15F
  8
DATA
  6
CONTINUOUS
 62
     7
 10
359.00000000000023
 20
-131.52732319174541
 30
0.0
 11
359.85881474341392
 21
-131.52732319174541
 31
0.0
  0
LINE
  5
160
  8
DATA
  6
CONTINUOUS
 62
     7
 10
359.00000000000023
 20
-170.52732319174561
 30
0.0
 11
360.32788511840982
 21
-170.52732319174561
 31
0.0
  0
ARC
  5
161
  8
DATA
  6
CONTINUOUS
 62
     7
 10
643.38811188811906
 20
-129.475528950637
 30
0.0
 40
286.02157574094571
 50
186.12632314797449
 51
204.27317231557549
  0
ARC
  5
162
  8
DATA
  6
CONTINUOUS
 62
     7
 10
370.24200165812078
 20
-116.00000447511241
 30
0.0
 40
8.0000000000000284
 50
90.0
 51
168.7632494358931
  0
ARC
  5
163
  8
DATA
  6
CONTINUOUS
 62
     7
 10
536.27037037037269
 20
-148.98518966029781
 30
0.0
 40
177.27327508780749
 50
168.7632494358933
 51
180.3279959905199
  0
ARC
  5
164
  8
DATA
  6
CONTINUOUS
 62
     7
 10
387.21000668254402
 20
-245.0000044751126
 30
0.0
 40
5.0000000000000009
 50
204.2731723155764
 51
270.0
  0
LINE
  5
165
  8
DATA
  6
CONTINUOUS
 62
     7
 10
401.0
 20
-234.00000447511269
 30
0.0
 11
401.0
 21
-226.00000447511269
 31
0.0
  0
LINE
  5
166
  8
DATA
  6
CONTINUOUS
 62
     7
 10
401.0
 20
-132.00000447511249
 30
0.0
 11
401.0
 21
-124.0000044751125
 31
0.0
  0
LINE
  5
167
  8
DATA
  6
CONTINUOUS
 62
     7
 10
400.0
 20
-124.0000044751125
 30
0.0
 11
401.0
 21
-124.0000044751125
 31
0.0
  0
LINE
  5
168
  8
DATA
  6
CONTINUOUS
 62
     7
 10
400.0
 20
-132.00000447511249
 30
0.0
 11
401.0
 21
-132.00000447511249
 31
0.0
  0
LINE
  5
169
  8
DATA
  6
CONTINUOUS
 62
     7
 10
400.0
 20
-226.00000447511269
 30
0.0
 11
401.0
 21
-226.00000447511269
 31
0.0
  0
LINE
  5
16A
  8
DATA
  6
CONTINUOUS
 62
     7
 10
400.0
 20
-234.00000447511269
 30
0.0
 11
401.0
 21
-234.00000447511269
 31
0.0
  0
ARC
  5
16B
  8
DATA
  6
CONTINUOUS
 62
     7
 10
796.8797171802521
 20
-102.6829403130188
 30
0.0
 40
414.71641616611038
 50
180.73460724184039
 51
196.86507361421241
  0
LINE
  5
16C
  8
DATA
  6
CONTINUOUS
 62
     7
 10
400.0
 20
-110.50000447511241
 30
0.0
 11
382.23698018182341
 21
-110.50000447511241
 31
0.0
  0
LINE
  5
16D
  8
DATA
  6
CONTINUOUS
 62
     7
 10
-416.37068257567319
 20
-909.00000000000125
 30
0.0
 11
-385.5000000000004
 21
-909.00000000000125
 31
0.0
  0
LINE
  5
16E
  8
DATA
  6
CONTINUOUS
 62
     7
 10
-445.4975477328324
 20
-950.0
 30
0.0
 11
-354.50245226716771
 21
-950.0
 31
0.0
  0
LINE
  5
16F
  8
DATA
  6
CONTINUOUS
 62
     7
 10
-445.4975477328324
 20
-922.97688222293834
 30
0.0
 11
-445.4975477328324
 21
-950.0
 31
0.0
  0
LINE
  5
170
  8
DATA
  6
CONTINUOUS
 62
     7
 10
-354.50245226716771
 20
-922.97688222293834
 30
0.0
 11
-354.50245226716771
 21
-950.0
 31
0.0
  0
LINE
  5
171
  8
DATA
  6
CONTINUOUS
 62
     7
 10
-433.4999999999996
 20
-950.0
 30
0.0
 11
-433.4999999999996
 21
-950.99999999999955
 31
0.0
  0
LINE
  5
172
  8
DATA
  6
CONTINUOUS
 62
     7
 10
-425.49999999999972
 20
-950.99999999999955
 30
0.0
 11
-425.49999999999972
 21
-950.0
 31
0.0
  0
LINE
  5
173
  8
DATA
  6
CONTINUOUS
 62
     7
 10
-433.4999999999996
 20
-950.99999999999955
 30
0.0
 11
-425.49999999999972
 21
-950.99999999999955
 31
0.0
  0
LINE
  5
174
  8
DATA
  6
CONTINUOUS
 62
     7
 10
-366.5000000000004
 20
-950.0
 30
0.0
 11
-366.5000000000004
 21
-950.99999999999955
 31
0.0
  0
LINE
  5
175
  8
DATA
  6
CONTINUOUS
 62
     7
 10
-374.50000000000028
 20
-950.99999999999955
 30
0.0
 11
-374.50000000000028
 21
-950.0
 31
0.0
  0
LINE
  5
176
  8
DATA
  6
CONTINUOUS
 62
     7
 10
-366.5000000000004
 20
-950.99999999999955
 30
0.0
 11
-374.50000000000028
 21
-950.99999999999955
 31
0.0
  0
ARC
  5
177
  8
DATA
  6
CONTINUOUS
 62
     7
 10
-440.49754773283217
 20
-922.97688222293834
 30
0.0
 40
4.9999999999999947
 50
118.0727281404175
 51
180.0
  0
ARC
  5
178
  8
DATA
  6
CONTINUOUS
 62
     7
 10
-338.2108057857892
 20
-1114.762578924114
 30
0.0
 40
222.35761094863079
 50
113.9742407290842
 51
118.072728140417
  0
LINE
  5
179
  8
DATA
  6
CONTINUOUS
 62
     7
 10
-383.62931742432693
 20
-909.00000000000125
 30
0.0
 11
-414.5
 21
-909.00000000000125
 31
0.0
  0
ARC
  5
17A
  8
DATA
  6
CONTINUOUS
 62
     7
 10
-359.50245226716771
 20
-922.97688222293834
 30
0.0
 40
5.000000000000056
 50
0.0
 51
61.927271859582511
  0
ARC
  5
17B
  8
DATA
  6
CONTINUOUS
 62
     7
 10
-416.37068257567319
 20
-939.00000000000125
 30
0.0
 40
30.0
 50
90.0
 51
113.9742407290835
  0
ARC
  5
17C
  8
DATA
  6
CONTINUOUS
 62
     7
 10
-383.62931742432693
 20
-939.00000000000125
 30
0.0
 40
29.999999999999972
 50
66.025759270915913
 51
90.0
  0
ARC
  5
17D
  8
DATA
  6
CONTINUOUS
 62
     7
 10
-461.78919421421119
 20
-1114.762578924114
 30
0.0
 40
222.35761094863099
 50
61.92727185958293
 51
66.025759270915728
  0
ARC
  5
17E
  8
DATA
  6
CONTINUOUS
 62
     7
 10
-398.51424114424492
 20
-1167.2425314387449
 30
0.0
 40
233.5981865786967
 50
79.140103110718456
 51
83.383918106644316
  0
ARC
  5
17F
  8
DATA
  6
CONTINUOUS
 62
     7
 10
-388.03895728751371
 20
-1124.219569289482
 30
0.0
 40
189.73306746866521
 50
85.029515279983286
 51
89.316550727697873
  0
LINE
  5
180
  8
DATA
  6
CONTINUOUS
 62
     7
 10
-385.77579143352602
 20
-934.50000000000045
 30
0.0
 11
-400.00000000000023
 21
-934.33031933264454
 31
0.0
  0
ARC
  5
181
  8
DATA
  6
CONTINUOUS
 62
     7
 10
-401.48575885575548
 20
-1167.2425314387449
 30
0.0
 40
233.5981865786965
 50
96.616081893355513
 51
100.8598968892814
  0
ARC
  5
182
  8
DATA
  6
CONTINUOUS
 62
     7
 10
-411.96104271248669
 20
-1124.219569289482
 30
0.0
 40
189.73306746866521
 50
90.683449272302127
 51
94.970484720016557
  0
LINE
  5
183
  8
DATA
  6
CONTINUOUS
 62
     7
 10
-414.22420856647437
 20
-934.50000000000045
 30
0.0
 11
-399.99999999999972
 21
-934.33031933264454
 31
0.0
  0
ARC
  5
184
  8
DATA
  6
CONTINUOUS
 62
     7
 10
-394.60044994411771
 20
558.77406395840603
 30
0.0
 40
47.994745474284109
 50
272.86683582915509
 51
280.93022726661758
  0
LINE
  5
185
  8
DATA
  6
CONTINUOUS
 62
     7
 10
-383.62931742432693
 20
509.0
 30
0.0
 11
-385.5000000000004
 21
509.0
 31
0.0
  0
ARC
  5
186
  8
DATA
  6
CONTINUOUS
 62
     7
 10
-396.82702020202049
 20
-729.35458331751613
 30
0.0
 40
203.20284854972479
 50
263.06852040815579
 51
267.55379346094998
  0
ARC
  5
187
  8
DATA
  6
CONTINUOUS
 62
     7
 10
-420.8076862194045
 20
-927.10795736418265
 30
0.0
 40
3.9999999999999161
 50
184.6317138347876
 51
260.66010789762481
  0
ARC
  5
188
  8
DATA
  6
CONTINUOUS
 62
     7
 10
-403.17297979797991
 20
-729.35458331751613
 30
0.0
 40
203.20284854972479
 50
272.44620653905002
 51
276.93147959184438
  0
ARC
  5
189
  8
DATA
  6
CONTINUOUS
 62
     7
 10
-379.19231378059573
 20
-927.10795736418265
 30
0.0
 40
4.0000000000001128
 50
279.33989210237598
 51
355.36828616521268
  0
ARC
  5
18A
  8
DATA
  6
CONTINUOUS
 62
     7
 10
-400.23873829375151
 20
-862.42735094338593
 30
0.0
 40
70.142506296807895
 50
265.69830771793818
 51
274.69161316599741
  0
ARC
  5
18B
  8
DATA
  6
CONTINUOUS
 62
     7
 10
-397.50471302402121
 20
-932.9323989424297
 30
0.0
 40
27.838912483400609
 50
126.1953114532044
 51
168.60236487405851
  0
ARC
  5
18C
  8
DATA
  6
CONTINUOUS
 62
     7
 10
-402.49528697597918
 20
-932.9323989424297
 30
0.0
 40
27.838912483400811
 50
11.39763512594131
 51
53.598618277653969
  0
TEXT
  5
18D
  8
DATA
 62
     7
 10
-404.19054047456819
 20
-916.78150720229041
 30
0.0
 40
4.3435763888888879
  1
AKG
 41
0.7
 72
     1
 11
-400.13653584493858
 21
-914.60971900784602
 31
0.0
 73
     2
  0
POLYLINE
  5
18E
  8
DATA
  6
CONTINUOUS
 62
     7
 66
     1
 10
0.0
 20
0.0
 30
0.0
 70
     1
  0
VERTEX
  5
627
  8
DATA
  6
CONTINUOUS
 62
     7
 10
-407.50000000000011
 20
-216.85450672790321
 30
0.0
  0
VERTEX
  5
628
  8
DATA
  6
CONTINUOUS
 62
     7
 10
-392.50000000000011
 20
-216.85450672790321
 30
0.0
  0
VERTEX
  5
629
  8
DATA
  6
CONTINUOUS
 62
     7
 10
-392.50000000000011
 20
-231.85450672790321
 30
0.0
  0
VERTEX
  5
62A
  8
DATA
  6
CONTINUOUS
 62
     7
 10
-407.50000000000011
 20
-231.85450672790321
 30
0.0
  0
SEQEND
  5
62B
  8
DATA
  6
CONTINUOUS
 62
     7
  0
TEXT
  5
195
  8
DATA
 62
     7
 10
-409.84671901866091
 20
-922.77438629333164
 30
0.0
 40
3.2576822916666659
  1
CGN521STS
 41
0.7
 72
     1
 11
-400.34514566796651
 21
-921.14554514749818
 31
0.0
 73
     2
  0
LINE
  5
196
  8
DATA
  6
CONTINUOUS
 62
     7
 10
-385.5000000000004
 20
-909.00000000000125
 30
0.0
 11
-385.5000000000004
 21
-910.61461016536725
 31
0.0
  0
LINE
  5
197
  8
DATA
  6
CONTINUOUS
 62
     7
 10
-414.5
 20
-909.00000000000125
 30
0.0
 11
-414.5
 21
-910.54928255656694
 31
0.0
  0
ARC
  5
198
  8
DATA
  6
CONTINUOUS
 62
     7
 10
-400.21068646915109
 20
-1004.109135211178
 30
0.0
 40
94.644759548193676
 50
85.14470414669583
 51
98.683630005324147
  0
ARC
  5
199
  8
DATA
  6
CONTINUOUS
 62
     7
 10
-394.60044994411771
 20
-957.73867412377149
 30
0.0
 40
47.994745474282773
 50
79.069772733382067
 51
87.133164170844765
  0
ARC
  5
19A
  8
DATA
  6
CONTINUOUS
 62
     7
 10
500.0
 20
-565.57542150985557
 30
0.0
 40
457.57541703474323
 50
85.90006397395058
 51
89.999999999999986
  0
ARC
  5
19B
  8
DATA
  6
CONTINUOUS
 62
     7
 10
532.0000000000008
 20
-119.1454113920049
 30
0.0
 40
10.000000000000449
 50
0.0
 51
85.900063973950466
  0
ARC
  5
19C
  8
DATA
  6
CONTINUOUS
 62
     7
 10
509.25
 20
-161.75000447511269
 30
0.0
 40
88.406023550434625
 50
273.40451829948893
 51
279.27586519233148
  0
ARC
  5
19D
  8
DATA
  6
CONTINUOUS
 62
     7
 10
520.38153750269453
 20
-223.57013156158939
 30
0.0
 40
28.31876352535037
 50
311.21219730559568
 51
325.61884629240581
  0
ARC
  5
19E
  8
DATA
  6
CONTINUOUS
 62
     7
 10
532.45084792032276
 20
-237.35087331015399
 30
0.0
 40
10.0
 50
283.76988705792479
 51
311.21219730559528
  0
ARC
  5
19F
  8
DATA
  6
CONTINUOUS
 62
     7
 10
515.56250000000011
 20
-168.43750447511269
 30
0.0
 40
80.952580641385325
 50
275.62696257457122
 51
283.76988705792547
  0
ARC
  5
1A0
  8
DATA
  6
CONTINUOUS
 62
     7
 10
531.4983677625321
 20
-232.78548558404569
 30
0.0
 40
14.00327546211804
 50
331.05984618416772
 51
359.12224051391991
  0
ARC
  5
1A1
  8
DATA
  6
CONTINUOUS
 62
     7
 10
1772.4575394506551
 20
-154.57864269837319
 30
0.0
 40
1229.4611476568591
 50
179.86118832126721
 51
183.65710251236959
  0
LINE
  5
1A2
  8
DATA
  6
CONTINUOUS
 62
     7
 10
543.00000000000125
 20
-151.5000044751126
 30
0.0
 11
542.00000000000125
 21
-119.0000044751125
 31
0.0
  0
LINE
  5
1A3
  8
DATA
  6
CONTINUOUS
 62
     7
 10
514.50000000000011
 20
-250.00000447511269
 30
0.0
 11
485.49999999999972
 21
-250.0000044751126
 31
0.0
  0
ARC
  5
1A4
  8
DATA
  6
CONTINUOUS
 62
     7
 10
500.0
 20
-565.57542150985557
 30
0.0
 40
457.57541703474323
 50
90.000000000000028
 51
94.099936026049363
  0
ARC
  5
1A5
  8
DATA
  6
CONTINUOUS
 62
     7
 10
467.99999999999972
 20
-119.1454113920049
 30
0.0
 40
10.0
 50
94.099936026048866
 51
180.0
  0
ARC
  5
1A6
  8
DATA
  6
CONTINUOUS
 62
     7
 10
490.74999999999989
 20
-161.75000447511269
 30
0.0
 40
88.406023550434654
 50
260.7241348076688
 51
266.5954817005113
  0
ARC
  5
1A7
  8
DATA
  6
CONTINUOUS
 62
     7
 10
479.61846249730547
 20
-223.57013156158939
 30
0.0
 40
28.318763525350121
 50
214.38115370759499
 51
228.78780269440529
  0
ARC
  5
1A8
  8
DATA
  6
CONTINUOUS
 62
     7
 10
467.5491520796777
 20
-237.35087331015399
 30
0.0
 40
9.9999999999999591
 50
228.78780269440571
 51
256.23011294207521
  0
ARC
  5
1A9
  8
DATA
  6
CONTINUOUS
 62
     7
 10
484.43749999999989
 20
-168.43750447511269
 30
0.0
 40
80.952580641385325
 50
256.23011294207492
 51
264.37303742542889
  0
ARC
  5
1AA
  8
DATA
  6
CONTINUOUS
 62
     7
 10
468.5016322374683
 20
-232.78548558404569
 30
0.0
 40
14.0032754621178
 50
180.87775948608009
 51
208.9401538158329
  0
ARC
  5
1AB
  8
DATA
  6
CONTINUOUS
 62
     7
 10
-772.4575394506204
 20
-154.57864269837319
 30
0.0
 40
1229.461147656825
 50
356.3428974876303
 51
0.1388116787327931
  0
LINE
  5
1AC
  8
DATA
  6
CONTINUOUS
 62
     7
 10
456.99999999999972
 20
-151.5000044751126
 30
0.0
 11
457.99999999999972
 21
-119.0000044751125
 31
0.0
  0
POLYLINE
  5
1AD
  8
DATA
  6
CONTINUOUS
 62
     7
 66
     1
 10
0.0
 20
0.0
 30
0.0
 70
     1
  0
VERTEX
  5
62C
  8
DATA
  6
CONTINUOUS
 62
     7
 10
-406.50000000000023
 20
-221.35450672790321
 30
0.0
  0
VERTEX
  5
62D
  8
DATA
  6
CONTINUOUS
 62
     7
 10
-393.5
 20
-221.35450672790321
 30
0.0
  0
VERTEX
  5
62E
  8
DATA
  6
CONTINUOUS
 62
     7
 10
-393.5
 20
-227.35450672790321
 30
0.0
  0
VERTEX
  5
62F
  8
DATA
  6
CONTINUOUS
 62
     7
 10
-406.50000000000023
 20
-227.35450672790321
 30
0.0
  0
SEQEND
  5
630
  8
DATA
  6
CONTINUOUS
 62
     7
  0
LINE
  5
1B4
  8
DATA
  6
CONTINUOUS
 62
     7
 10
373.81717415377761
 20
-231.8545112030157
 30
0.0
 11
368.54043840829678
 21
-216.8545112030157
 31
0.0
  0
LINE
  5
1B5
  8
DATA
  6
CONTINUOUS
 62
     7
 10
368.54043840829678
 20
-216.8545112030157
 30
0.0
 11
370.80999767272829
 21
-216.13297779443101
 31
0.0
  0
LINE
  5
1B6
  8
DATA
  6
CONTINUOUS
 62
     7
 10
373.81717415377761
 20
-231.8545112030157
 30
0.0
 11
376.00074944932243
 21
-231.02522219171431
 31
0.0
  0
LINE
  5
1B7
  8
DATA
  6
CONTINUOUS
 62
     7
 10
371.73415343013352
 20
-227.3545112030157
 30
0.0
 11
369.62345913194122
 21
-221.3545112030157
 31
0.0
  0
LINE
  5
1B8
  8
DATA
  6
CONTINUOUS
 62
     7
 10
369.62345913194122
 20
-221.3545112030157
 30
0.0
 11
370.06839761827871
 21
-221.1979896819893
 31
0.0
  0
LINE
  5
1B9
  8
DATA
  6
CONTINUOUS
 62
     7
 10
371.73415343013352
 20
-227.3545112030157
 30
0.0
 11
372.17909191647101
 21
-227.1979896819893
 31
0.0
  0
LINE
  5
1BA
  8
DATA
  6
CONTINUOUS
 62
     7
 10
-414.5
 20
-909.00000000000125
 30
0.0
 11
-385.5000000000004
 21
-909.00000000000125
 31
0.0
  0
LINE
  5
1BB
  8
DATA
  6
CONTINUOUS
 62
     7
 10
460.01071607904089
 20
-235.5000044751126
 30
0.0
 11
460.01071607904089
 21
-124.50000447511241
 31
0.0
  0
LINE
  5
1BC
  8
DATA
  6
CONTINUOUS
 62
     7
 10
540.01071607904237
 20
-235.5000044751126
 30
0.0
 11
540.01071607904237
 21
-124.50000447511241
 31
0.0
  0
LINE
  5
1BD
  8
DATA
  6
CONTINUOUS
 62
     7
 10
469.010716079041
 20
-111.00000447511241
 30
0.0
 11
477.51071607904112
 21
-111.00000447511241
 31
0.0
  0
LINE
  5
1BE
  8
DATA
  6
CONTINUOUS
 62
     7
 10
522.51071607904169
 20
-111.00000447511241
 30
0.0
 11
531.01071607904203
 21
-111.00000447511241
 31
0.0
  0
LINE
  5
1BF
  8
DATA
  6
CONTINUOUS
 62
     7
 10
463.51071607904089
 20
-121.00000447511241
 30
0.0
 11
536.51071607904225
 21
-121.00000447511241
 31
0.0
  0
LINE
  5
1C0
  8
DATA
  6
CONTINUOUS
 62
     7
 10
463.51071607904089
 20
-239.0000044751126
 30
0.0
 11
536.51071607904225
 21
-239.0000044751126
 31
0.0
  0
CIRCLE
  5
1C1
  8
DATA
  6
CONTINUOUS
 62
     7
 10
470.510716079041
 20
-128.00000447511249
 30
0.0
 40
4.0
  0
CIRCLE
  5
1C2
  8
DATA
  6
CONTINUOUS
 62
     7
 10
470.510716079041
 20
-230.00000447511269
 30
0.0
 40
4.0
  0
CIRCLE
  5
1C3
  8
DATA
  6
CONTINUOUS
 62
     7
 10
529.51071607904203
 20
-230.00000447511269
 30
0.0
 40
4.0000000000002274
  0
CIRCLE
  5
1C4
  8
DATA
  6
CONTINUOUS
 62
     7
 10
529.51071607904203
 20
-128.00000447511249
 30
0.0
 40
4.0000000000002274
  0
LINE
  5
1C5
  8
DATA
  6
CONTINUOUS
 62
     7
 10
455.09825596165081
 20
-223.00000447511209
 30
0.0
 11
459.01071607904089
 21
-223.00000447511209
 31
0.0
  0
LINE
  5
1C6
  8
DATA
  6
CONTINUOUS
 62
     7
 10
541.0107160790426
 20
-223.00000447511209
 30
0.0
 11
544.90174403834999
 21
-223.00000447511209
 31
0.0
  0
ARC
  5
1C7
  8
DATA
  6
CONTINUOUS
 62
     7
 10
463.51071607904089
 20
-124.50000447511241
 30
0.0
 40
3.5
 50
90.0
 51
180.0
  0
ARC
  5
1C8
  8
DATA
  6
CONTINUOUS
 62
     7
 10
536.51071607904225
 20
-124.50000447511241
 30
0.0
 40
3.5000000000001128
 50
0.0
 51
90.0
  0
ARC
  5
1C9
  8
DATA
  6
CONTINUOUS
 62
     7
 10
463.51071607904089
 20
-235.5000044751126
 30
0.0
 40
3.5
 50
180.0
 51
270.0
  0
ARC
  5
1CA
  8
DATA
  6
CONTINUOUS
 62
     7
 10
536.51071607904225
 20
-235.5000044751126
 30
0.0
 40
3.5
 50
270.0
 51
0.0
  0
LINE
  5
1CB
  8
DATA
  6
CONTINUOUS
 62
     7
 10
459.01071607904089
 20
-223.00000447511209
 30
0.0
 11
459.01071607904089
 21
-121.00000447511241
 31
0.0
  0
LINE
  5
1CC
  8
DATA
  6
CONTINUOUS
 62
     7
 10
541.0107160790426
 20
-121.00000447511241
 30
0.0
 11
541.0107160790426
 21
-223.00000447511209
 31
0.0
  0
ARC
  5
1CD
  8
DATA
  6
CONTINUOUS
 62
     7
 10
469.010716079041
 20
-121.00000447511241
 30
0.0
 40
10.00000000000002
 50
90.0
 51
180.0
  0
ARC
  5
1CE
  8
DATA
  6
CONTINUOUS
 62
     7
 10
531.01071607904203
 20
-121.00000447511241
 30
0.0
 40
10.000000000000449
 50
0.0
 51
90.0
  0
ARC
  5
1CF
  8
DATA
  6
CONTINUOUS
 62
     7
 10
486.78472428860317
 20
-120.2371296075104
 30
0.0
 40
13.0893738957447
 50
115.1141605876538
 51
135.1141605876538
  0
ARC
  5
1D0
  8
DATA
  6
CONTINUOUS
 62
     7
 10
513.21527571139654
 20
-120.2371296075104
 30
0.0
 40
13.089373895744959
 50
44.885839412345149
 51
64.885839412345291
  0
LINE
  5
1D1
  8
DATA
  6
CONTINUOUS
 62
     7
 10
485.51071607904112
 20
-118.8278080439071
 30
0.0
 11
485.51071607904112
 21
-112.8278080439071
 31
0.0
  0
LINE
  5
1D2
  8
DATA
  6
CONTINUOUS
 62
     7
 10
514.51071607904146
 20
-118.8278080439071
 30
0.0
 11
485.51071607904112
 21
-118.8278080439071
 31
0.0
  0
LINE
  5
1D3
  8
DATA
  6
CONTINUOUS
 62
     7
 10
514.51071607904146
 20
-112.8278080439071
 30
0.0
 11
514.51071607904146
 21
-118.8278080439071
 31
0.0
  0
LINE
  5
1D4
  8
DATA
  6
CONTINUOUS
 62
     7
 10
485.51071607904112
 20
-112.8278080439071
 30
0.0
 11
514.51071607904146
 21
-112.8278080439071
 31
0.0
  0
LINE
  5
1D5
  8
DATA
  6
CONTINUOUS
 62
     7
 10
471.510716079041
 20
-244.22546073879801
 30
0.0
 11
471.510716079041
 21
-241.92546073879799
 31
0.0
  0
LINE
  5
1D6
  8
DATA
  6
CONTINUOUS
 62
     7
 10
528.51071607904203
 20
-241.92546073879799
 30
0.0
 11
528.51071607904203
 21
-244.22546073879801
 31
0.0
  0
LINE
  5
1D7
  8
DATA
  6
CONTINUOUS
 62
     7
 10
471.510716079041
 20
-241.92546073879799
 30
0.0
 11
528.51071607904203
 21
-241.92546073879799
 31
0.0
  0
ARC
  5
1D8
  8
DATA
  6
CONTINUOUS
 62
     7
 10
500.01071607904117
 20
-126.4769313270334
 30
0.0
 40
121.1485294117647
 50
256.3937333329938
 51
283.60626666700648
  0
CIRCLE
  5
1D9
  8
DATA
  6
CONTINUOUS
 62
     7
 10
500.01071607904117
 20
-172.00000447511269
 30
0.0
 40
5.0
  0
POLYLINE
  5
1DA
  8
DATA
  6
CONTINUOUS
 62
     7
 66
     1
 10
0.0
 20
0.0
 30
0.0
 70
     1
  0
VERTEX
  5
631
  8
DATA
  6
CONTINUOUS
 62
     7
 10
496.76071607904117
 20
-168.7500044751126
 30
0.0
  0
VERTEX
  5
632
  8
DATA
  6
CONTINUOUS
 62
     7
 10
503.26071607904117
 20
-168.7500044751126
 30
0.0
  0
VERTEX
  5
633
  8
DATA
  6
CONTINUOUS
 62
     7
 10
503.26071607904117
 20
-175.2500044751126
 30
0.0
  0
VERTEX
  5
634
  8
DATA
  6
CONTINUOUS
 62
     7
 10
496.76071607904117
 20
-175.2500044751126
 30
0.0
  0
SEQEND
  5
635
  8
DATA
  6
CONTINUOUS
 62
     7
  0
CIRCLE
  5
1E1
  8
DATA
  6
CONTINUOUS
 62
     7
 10
500.01071607904117
 20
-172.00000447511269
 30
0.0
 40
1.4621947025442521
  0
LINE
  5
1E2
  8
DATA
  6
CONTINUOUS
 62
     7
 10
479.510716079041
 20
-179.94676420060071
 30
0.0
 11
520.51071607904169
 21
-179.94676420060071
 31
0.0
  0
LINE
  5
1E3
  8
DATA
  6
CONTINUOUS
 62
     7
 10
479.510716079041
 20
-229.04676420060071
 30
0.0
 11
479.510716079041
 21
-179.94676420060071
 31
0.0
  0
LINE
  5
1E4
  8
DATA
  6
CONTINUOUS
 62
     7
 10
520.51071607904169
 20
-229.04676420060071
 30
0.0
 11
520.51071607904169
 21
-179.94676420060071
 31
0.0
  0
LINE
  5
1E5
  8
DATA
  6
CONTINUOUS
 62
     7
 10
479.510716079041
 20
-182.9467642006008
 30
0.0
 11
520.51071607904169
 21
-182.9467642006008
 31
0.0
  0
LINE
  5
1E6
  8
DATA
  6
CONTINUOUS
 62
     7
 10
479.510716079041
 20
-185.24676420060069
 30
0.0
 11
520.51071607904169
 21
-185.24676420060069
 31
0.0
  0
LINE
  5
1E7
  8
DATA
  6
CONTINUOUS
 62
     7
 10
479.510716079041
 20
-187.54676420060071
 30
0.0
 11
520.51071607904169
 21
-187.54676420060071
 31
0.0
  0
LINE
  5
1E8
  8
DATA
  6
CONTINUOUS
 62
     7
 10
479.510716079041
 20
-189.84676420060069
 30
0.0
 11
520.51071607904169
 21
-189.84676420060069
 31
0.0
  0
LINE
  5
1E9
  8
DATA
  6
CONTINUOUS
 62
     7
 10
479.510716079041
 20
-192.1467642006007
 30
0.0
 11
520.51071607904169
 21
-192.1467642006007
 31
0.0
  0
LINE
  5
1EA
  8
DATA
  6
CONTINUOUS
 62
     7
 10
479.510716079041
 20
-194.44676420060071
 30
0.0
 11
520.51071607904169
 21
-194.44676420060071
 31
0.0
  0
LINE
  5
1EB
  8
DATA
  6
CONTINUOUS
 62
     7
 10
479.510716079041
 20
-196.74676420060081
 30
0.0
 11
520.51071607904169
 21
-196.74676420060081
 31
0.0
  0
LINE
  5
1EC
  8
DATA
  6
CONTINUOUS
 62
     7
 10
479.510716079041
 20
-199.04676420060079
 30
0.0
 11
520.51071607904169
 21
-199.04676420060079
 31
0.0
  0
LINE
  5
1ED
  8
DATA
  6
CONTINUOUS
 62
     7
 10
479.510716079041
 20
-201.3467642006008
 30
0.0
 11
520.51071607904169
 21
-201.3467642006008
 31
0.0
  0
LINE
  5
1EE
  8
DATA
  6
CONTINUOUS
 62
     7
 10
479.510716079041
 20
-203.64676420060081
 30
0.0
 11
520.51071607904169
 21
-203.64676420060081
 31
0.0
  0
LINE
  5
1EF
  8
DATA
  6
CONTINUOUS
 62
     7
 10
479.510716079041
 20
-205.9467642006008
 30
0.0
 11
520.51071607904169
 21
-205.9467642006008
 31
0.0
  0
LINE
  5
1F0
  8
DATA
  6
CONTINUOUS
 62
     7
 10
479.510716079041
 20
-208.24676420060081
 30
0.0
 11
520.51071607904169
 21
-208.24676420060081
 31
0.0
  0
LINE
  5
1F1
  8
DATA
  6
CONTINUOUS
 62
     7
 10
479.510716079041
 20
-210.54676420060079
 30
0.0
 11
520.51071607904169
 21
-210.54676420060079
 31
0.0
  0
LINE
  5
1F2
  8
DATA
  6
CONTINUOUS
 62
     7
 10
479.510716079041
 20
-212.8467642006008
 30
0.0
 11
520.51071607904169
 21
-212.8467642006008
 31
0.0
  0
LINE
  5
1F3
  8
DATA
  6
CONTINUOUS
 62
     7
 10
479.510716079041
 20
-215.14676420060081
 30
0.0
 11
520.51071607904169
 21
-215.14676420060081
 31
0.0
  0
LINE
  5
1F4
  8
DATA
  6
CONTINUOUS
 62
     7
 10
479.510716079041
 20
-217.4467642006008
 30
0.0
 11
520.51071607904169
 21
-217.4467642006008
 31
0.0
  0
LINE
  5
1F5
  8
DATA
  6
CONTINUOUS
 62
     7
 10
479.510716079041
 20
-219.74676420060081
 30
0.0
 11
520.51071607904169
 21
-219.74676420060081
 31
0.0
  0
LINE
  5
1F6
  8
DATA
  6
CONTINUOUS
 62
     7
 10
479.510716079041
 20
-222.04676420060079
 30
0.0
 11
520.51071607904169
 21
-222.04676420060079
 31
0.0
  0
LINE
  5
1F7
  8
DATA
  6
CONTINUOUS
 62
     7
 10
488.510716079041
 20
-182.9467642006008
 30
0.0
 11
488.510716079041
 21
-222.04676420060079
 31
0.0
  0
LINE
  5
1F8
  8
DATA
  6
CONTINUOUS
 62
     7
 10
497.51071607904117
 20
-182.9467642006008
 30
0.0
 11
497.51071607904117
 21
-222.04676420060079
 31
0.0
  0
LINE
  5
1F9
  8
DATA
  6
CONTINUOUS
 62
     7
 10
506.51071607904117
 20
-182.9467642006008
 30
0.0
 11
506.51071607904117
 21
-222.04676420060079
 31
0.0
  0
TEXT
  5
1FA
  8
DATA
 62
     7
 10
483.73420638084559
 20
-182.48061843579379
 30
0.0
 40
1.954609375
  1
disconnect before setting
 41
0.7
 72
     1
 11
499.14955898501228
 21
-181.50331374829381
 31
0.0
 73
     2
  0
TEXT
  5
1FB
  8
DATA
 62
     7
 10
482.1095769677504
 20
-184.75369188869391
 30
0.0
 40
1.954609375
  1
pos
 41
0.7
 72
     1
 11
483.93387905108369
 21
-183.7763872011939
 31
0.0
 73
     2
  0
TEXT
  5
1FC
  8
DATA
 62
     7
 10
483.73355879455221
 20
-187.27187109752759
 30
0.0
 40
1.6288411458333329
  1
0
 41
0.7
 72
     1
 11
484.01860599507302
 21
-186.457450524611
 31
0.0
 73
     2
  0
TEXT
  5
1FD
  8
DATA
 62
     7
 10
483.82857452805911
 20
-189.5718710975278
 30
0.0
 40
1.6288411458333329
  1
1
 41
0.7
 72
     1
 11
484.01860599507302
 21
-188.7574505246111
 31
0.0
 73
     2
  0
TEXT
  5
1FE
  8
DATA
 62
     7
 10
483.63854306104531
 20
-191.8718710975277
 30
0.0
 40
1.6288411458333329
  1
2
 41
0.7
 72
     1
 11
484.01860599507302
 21
-191.057450524611
 31
0.0
 73
     2
  0
TEXT
  5
1FF
  8
DATA
 62
     7
 10
483.63854306104531
 20
-194.1718710975278
 30
0.0
 40
1.6288411458333329
  1
3
 41
0.7
 72
     1
 11
484.01860599507302
 21
-193.3574505246111
 31
0.0
 73
     2
  0
TEXT
  5
200
  8
DATA
 62
     7
 10
483.63854306104531
 20
-196.47187109752781
 30
0.0
 40
1.6288411458333329
  1
4
 41
0.7
 72
     1
 11
484.01860599507302
 21
-195.65745052461111
 31
0.0
 73
     2
  0
TEXT
  5
201
  8
DATA
 62
     7
 10
483.63854306104531
 20
-198.77187109752779
 30
0.0
 40
1.6288411458333329
  1
5
 41
0.7
 72
     1
 11
484.01860599507302
 21
-197.9574505246112
 31
0.0
 73
     2
  0
TEXT
  5
202
  8
DATA
 62
     7
 10
483.63854306104531
 20
-201.0718710975278
 30
0.0
 40
1.6288411458333329
  1
6
 41
0.7
 72
     1
 11
484.01860599507302
 21
-200.25745052461119
 31
0.0
 73
     2
  0
TEXT
  5
203
  8
DATA
 62
     7
 10
483.63854306104531
 20
-203.3718710975279
 30
0.0
 40
1.6288411458333329
  1
7
 41
0.7
 72
     1
 11
484.01860599507302
 21
-202.5574505246112
 31
0.0
 73
     2
  0
TEXT
  5
204
  8
DATA
 62
     7
 10
483.63854306104531
 20
-205.6718710975278
 30
0.0
 40
1.6288411458333329
  1
8
 41
0.7
 72
     1
 11
484.01860599507302
 21
-204.8574505246111
 31
0.0
 73
     2
  0
TEXT
  5
205
  8
DATA
 62
     7
 10
483.63854306104531
 20
-207.97187109752781
 30
0.0
 40
1.6288411458333329
  1
9
 41
0.7
 72
     1
 11
484.01860599507302
 21
-207.15745052461119
 31
0.0
 73
     2
  0
TEXT
  5
206
  8
DATA
 62
     7
 10
483.63854306104531
 20
-210.27187109752779
 30
0.0
 40
1.6288411458333329
  1
A
 41
0.7
 72
     1
 11
484.01860599507302
 21
-209.45745052461109
 31
0.0
 73
     2
  0
TEXT
  5
207
  8
DATA
 62
     7
 10
483.63854306104531
 20
-212.5718710975278
 30
0.0
 40
1.6288411458333329
  1
B
 41
0.7
 72
     1
 11
484.01860599507302
 21
-211.7574505246111
 31
0.0
 73
     2
  0
TEXT
  5
208
  8
DATA
 62
     7
 10
483.63854306104531
 20
-214.87187109752779
 30
0.0
 40
1.6288411458333329
  1
C
 41
0.7
 72
     1
 11
484.01860599507302
 21
-214.0574505246112
 31
0.0
 73
     2
  0
TEXT
  5
209
  8
DATA
 62
     7
 10
483.63854306104531
 20
-217.1718710975278
 30
0.0
 40
1.6288411458333329
  1
D
 41
0.7
 72
     1
 11
484.01860599507302
 21
-216.3574505246111
 31
0.0
 73
     2
  0
TEXT
  5
20A
  8
DATA
 62
     7
 10
483.63854306104531
 20
-219.47187109752781
 30
0.0
 40
1.6288411458333329
  1
E
 41
0.7
 72
     1
 11
484.01860599507302
 21
-218.65745052461111
 31
0.0
 73
     2
  0
TEXT
  5
20B
  8
DATA
 62
     7
 10
483.63854306104531
 20
-221.77187109752779
 30
0.0
 40
1.6288411458333329
  1
F
 41
0.7
 72
     1
 11
484.01860599507302
 21
-220.95745052461109
 31
0.0
 73
     2
  0
TEXT
  5
20C
  8
DATA
 62
     7
 10
491.48932034410763
 20
-184.91963852840161
 30
0.0
 40
1.563687499999999
  1
LED
 41
0.7
 72
     1
 11
492.9487620107742
 21
-184.1377947784016
 31
0.0
 73
     2
  0
TEXT
  5
20D
  8
DATA
 62
     7
 10
491.4410068766357
 20
-187.27187109752759
 30
0.0
 40
1.6288411458333329
  1
off
 41
0.7
 72
     1
 11
492.9612586127468
 21
-186.457450524611
 31
0.0
 73
     2
  0
TEXT
  5
20E
  8
DATA
 62
     7
 10
491.99212260117969
 20
-205.5284472458751
 30
0.0
 40
1.6288411458333329
  1
on
 41
0.7
 72
     1
 11
492.94227993624912
 21
-204.7140266729584
 31
0.0
 73
     2
  0
TEXT
  5
20F
  8
DATA
 62
     7
 10
491.4410068766357
 20
-189.5718710975278
 30
0.0
 40
1.6288411458333329
  1
off
 41
0.7
 72
     1
 11
492.9612586127468
 21
-188.7574505246111
 31
0.0
 73
     2
  0
TEXT
  5
210
  8
DATA
 62
     7
 10
491.4410068766357
 20
-191.8718710975277
 30
0.0
 40
1.6288411458333329
  1
off
 41
0.7
 72
     1
 11
492.9612586127468
 21
-191.057450524611
 31
0.0
 73
     2
  0
TEXT
  5
211
  8
DATA
 62
     7
 10
491.4410068766357
 20
-194.1718710975278
 30
0.0
 40
1.6288411458333329
  1
off
 41
0.7
 72
     1
 11
492.9612586127468
 21
-193.3574505246111
 31
0.0
 73
     2
  0
TEXT
  5
212
  8
DATA
 62
     7
 10
491.4410068766357
 20
-196.47187109752781
 30
0.0
 40
1.6288411458333329
  1
off
 41
0.7
 72
     1
 11
492.9612586127468
 21
-195.65745052461111
 31
0.0
 73
     2
  0
TEXT
  5
213
  8
DATA
 62
     7
 10
491.4410068766357
 20
-198.77187109752779
 30
0.0
 40
1.6288411458333329
  1
off
 41
0.7
 72
     1
 11
492.9612586127468
 21
-197.9574505246112
 31
0.0
 73
     2
  0
TEXT
  5
214
  8
DATA
 62
     7
 10
491.4410068766357
 20
-201.0718710975278
 30
0.0
 40
1.6288411458333329
  1
off
 41
0.7
 72
     1
 11
492.9612586127468
 21
-200.25745052461119
 31
0.0
 73
     2
  0
TEXT
  5
215
  8
DATA
 62
     7
 10
491.4410068766357
 20
-203.3718710975279
 30
0.0
 40
1.6288411458333329
  1
off
 41
0.7
 72
     1
 11
492.9612586127468
 21
-202.5574505246112
 31
0.0
 73
     2
  0
TEXT
  5
216
  8
DATA
 62
     7
 10
491.99212260117969
 20
-207.82844724587511
 30
0.0
 40
1.6288411458333329
  1
on
 41
0.7
 72
     1
 11
492.94227993624912
 21
-207.01402667295841
 31
0.0
 73
     2
  0
TEXT
  5
217
  8
DATA
 62
     7
 10
491.99212260117969
 20
-210.12844724587509
 30
0.0
 40
1.6288411458333329
  1
on
 41
0.7
 72
     1
 11
492.94227993624912
 21
-209.31402667295839
 31
0.0
 73
     2
  0
TEXT
  5
218
  8
DATA
 62
     7
 10
491.99212260117969
 20
-212.42844724587511
 30
0.0
 40
1.6288411458333329
  1
on
 41
0.7
 72
     1
 11
492.94227993624912
 21
-211.6140266729584
 31
0.0
 73
     2
  0
TEXT
  5
219
  8
DATA
 62
     7
 10
491.99212260117969
 20
-214.72844724587509
 30
0.0
 40
1.6288411458333329
  1
on
 41
0.7
 72
     1
 11
492.94227993624912
 21
-213.91402667295841
 31
0.0
 73
     2
  0
TEXT
  5
21A
  8
DATA
 62
     7
 10
491.99212260117969
 20
-217.0284472458751
 30
0.0
 40
1.6288411458333329
  1
on
 41
0.7
 72
     1
 11
492.94227993624912
 21
-216.2140266729584
 31
0.0
 73
     2
  0
TEXT
  5
21B
  8
DATA
 62
     7
 10
491.99212260117969
 20
-219.32844724587511
 30
0.0
 40
1.6288411458333329
  1
on
 41
0.7
 72
     1
 11
492.94227993624912
 21
-218.51402667295841
 31
0.0
 73
     2
  0
TEXT
  5
21C
  8
DATA
 62
     7
 10
491.99212260117969
 20
-221.62844724587509
 30
0.0
 40
1.6288411458333329
  1
on
 41
0.7
 72
     1
 11
492.94227993624912
 21
-220.81402667295839
 31
0.0
 73
     2
  0
TEXT
  5
21D
  8
DATA
 62
     7
 10
498.22879621036958
 20
-184.98332685755761
 30
0.0
 40
1.563687499999999
  1
BASSCUT
 41
0.7
 72
     1
 11
501.87740037703628
 21
-184.20148310755761
 31
0.0
 73
     2
  0
TEXT
  5
21E
  8
DATA
 62
     7
 10
500.44100687663592
 20
-187.27187109752759
 30
0.0
 40
1.6288411458333329
  1
off
 41
0.7
 72
     1
 11
501.96125861274697
 21
-186.457450524611
 31
0.0
 73
     2
  0
TEXT
  5
21F
  8
DATA
 62
     7
 10
500.44100687663592
 20
-189.5718710975278
 30
0.0
 40
1.6288411458333329
  1
off
 41
0.7
 72
     1
 11
501.96125861274697
 21
-188.7574505246111
 31
0.0
 73
     2
  0
TEXT
  5
220
  8
DATA
 62
     7
 10
500.44100687663592
 20
-191.8718710975277
 30
0.0
 40
1.6288411458333329
  1
off
 41
0.7
 72
     1
 11
501.96125861274697
 21
-191.057450524611
 31
0.0
 73
     2
  0
TEXT
  5
221
  8
DATA
 62
     7
 10
500.44100687663592
 20
-194.1718710975278
 30
0.0
 40
1.6288411458333329
  1
off
 41
0.7
 72
     1
 11
501.96125861274697
 21
-193.3574505246111
 31
0.0
 73
     2
  0
TEXT
  5
222
  8
DATA
 62
     7
 10
500.44100687663592
 20
-205.6718710975278
 30
0.0
 40
1.6288411458333329
  1
off
 41
0.7
 72
     1
 11
501.96125861274697
 21
-204.8574505246111
 31
0.0
 73
     2
  0
TEXT
  5
223
  8
DATA
 62
     7
 10
500.44100687663592
 20
-207.97187109752781
 30
0.0
 40
1.6288411458333329
  1
off
 41
0.7
 72
     1
 11
501.96125861274697
 21
-207.15745052461111
 31
0.0
 73
     2
  0
TEXT
  5
224
  8
DATA
 62
     7
 10
500.44100687663592
 20
-210.27187109752779
 30
0.0
 40
1.6288411458333329
  1
off
 41
0.7
 72
     1
 11
501.96125861274697
 21
-209.45745052461109
 31
0.0
 73
     2
  0
TEXT
  5
225
  8
DATA
 62
     7
 10
500.44100687663592
 20
-212.5718710975278
 30
0.0
 40
1.6288411458333329
  1
off
 41
0.7
 72
     1
 11
501.96125861274697
 21
-211.7574505246111
 31
0.0
 73
     2
  0
TEXT
  5
226
  8
DATA
 62
     7
 10
501.05522462877047
 20
-196.2229306993419
 30
0.0
 40
1.6288411458333329
  1
on
 41
0.7
 72
     1
 11
502.00538196383991
 21
-195.40851012642531
 31
0.0
 73
     2
  0
TEXT
  5
227
  8
DATA
 62
     7
 10
501.05522462877047
 20
-198.52293069934191
 30
0.0
 40
1.6288411458333329
  1
on
 41
0.7
 72
     1
 11
502.00538196383991
 21
-197.7085101264253
 31
0.0
 73
     2
  0
TEXT
  5
228
  8
DATA
 62
     7
 10
501.05522462877047
 20
-200.82293069934201
 30
0.0
 40
1.6288411458333329
  1
on
 41
0.7
 72
     1
 11
502.00538196383991
 21
-200.00851012642531
 31
0.0
 73
     2
  0
TEXT
  5
229
  8
DATA
 62
     7
 10
501.05522462877047
 20
-203.12293069934199
 30
0.0
 40
1.6288411458333329
  1
on
 41
0.7
 72
     1
 11
502.00538196383991
 21
-202.30851012642529
 31
0.0
 73
     2
  0
TEXT
  5
22A
  8
DATA
 62
     7
 10
500.99212260117969
 20
-214.72844724587509
 30
0.0
 40
1.6288411458333329
  1
on
 41
0.7
 72
     1
 11
501.94227993624918
 21
-213.91402667295841
 31
0.0
 73
     2
  0
TEXT
  5
22B
  8
DATA
 62
     7
 10
500.99212260117969
 20
-217.0284472458751
 30
0.0
 40
1.6288411458333329
  1
on
 41
0.7
 72
     1
 11
501.94227993624918
 21
-216.2140266729584
 31
0.0
 73
     2
  0
TEXT
  5
22C
  8
DATA
 62
     7
 10
500.99212260117969
 20
-219.32844724587511
 30
0.0
 40
1.6288411458333329
  1
on
 41
0.7
 72
     1
 11
501.94227993624918
 21
-218.51402667295841
 31
0.0
 73
     2
  0
TEXT
  5
22D
  8
DATA
 62
     7
 10
500.99212260117969
 20
-221.62844724587509
 30
0.0
 40
1.6288411458333329
  1
on
 41
0.7
 72
     1
 11
501.94227993624918
 21
-220.81402667295839
 31
0.0
 73
     2
  0
LINE
  5
22E
  8
DATA
  6
CONTINUOUS
 62
     7
 10
498.97678835962262
 20
-173.0339323348621
 30
0.0
 11
501.04464379845979
 21
-170.96607661536311
 31
0.0
  0
TEXT
  5
22F
  8
DATA
 62
     7
 10
510.27379696213802
 20
-184.98332685755761
 30
0.0
 40
1.563687499999999
  1
SWITCH
 41
0.7
 72
     1
 11
513.37511050380465
 21
-184.20148310755761
 31
0.0
 73
     2
  0
TEXT
  5
230
  8
DATA
 62
     7
 10
510.27379696213802
 20
-187.2515385430103
 30
0.0
 40
1.563687499999999
  1
on/off
 41
0.7
 72
     1
 11
513.37511050380465
 21
-186.46969479301029
 31
0.0
 73
     2
  0
TEXT
  5
231
  8
DATA
 62
     7
 10
507.59058953096383
 20
-189.4561735993685
 30
0.0
 40
1.563687499999999
  1
push to talk
 41
0.7
 72
     1
 11
513.26416901013044
 21
-188.67432984936849
 31
0.0
 73
     2
  0
TEXT
  5
232
  8
DATA
 62
     7
 10
507.348732533011
 20
-191.78796191391569
 30
0.0
 40
1.563687499999999
  1
push to mute
 41
0.7
 72
     1
 11
513.29595732467772
 21
-191.00611816391569
 31
0.0
 73
     2
  0
TEXT
  5
233
  8
DATA
 62
     7
 10
513.15236689330277
 20
-194.08796191391579
 30
0.0
 40
1.563687499999999
  1
-
 41
0.7
 72
     1
 11
513.5172273099696
 21
-193.3061181639157
 31
0.0
 73
     2
  0
TEXT
  5
234
  8
DATA
 62
     7
 10
510.27379696213802
 20
-196.3879619139158
 30
0.0
 40
1.563687499999999
  1
on/off
 41
0.7
 72
     1
 11
513.37511050380465
 21
-195.6061181639158
 31
0.0
 73
     2
  0
TEXT
  5
235
  8
DATA
 62
     7
 10
507.59058953096383
 20
-198.65617359936849
 30
0.0
 40
1.563687499999999
  1
push to talk
 41
0.7
 72
     1
 11
513.26416901013044
 21
-197.87432984936851
 31
0.0
 73
     2
  0
TEXT
  5
236
  8
DATA
 62
     7
 10
507.348732533011
 20
-200.9879619139158
 30
0.0
 40
1.563687499999999
  1
push to mute
 41
0.7
 72
     1
 11
513.29595732467772
 21
-200.20611816391579
 31
0.0
 73
     2
  0
TEXT
  5
237
  8
DATA
 62
     7
 10
513.15236689330277
 20
-203.28796191391581
 30
0.0
 40
1.563687499999999
  1
-
 41
0.7
 72
     1
 11
513.5172273099696
 21
-202.5061181639158
 31
0.0
 73
     2
  0
TEXT
  5
238
  8
DATA
 62
     7
 10
510.27379696213802
 20
-205.58796191391579
 30
0.0
 40
1.563687499999999
  1
on/off
 41
0.7
 72
     1
 11
513.37511050380465
 21
-204.80611816391581
 31
0.0
 73
     2
  0
TEXT
  5
239
  8
DATA
 62
     7
 10
507.59058953096383
 20
-207.8561735993685
 30
0.0
 40
1.563687499999999
  1
push to talk
 41
0.7
 72
     1
 11
513.26416901013044
 21
-207.0743298493685
 31
0.0
 73
     2
  0
TEXT
  5
23A
  8
DATA
 62
     7
 10
507.348732533011
 20
-210.18796191391581
 30
0.0
 40
1.563687499999999
  1
push to mute
 41
0.7
 72
     1
 11
513.29595732467772
 21
-209.40611816391581
 31
0.0
 73
     2
  0
TEXT
  5
23B
  8
DATA
 62
     7
 10
513.15236689330277
 20
-212.4879619139158
 30
0.0
 40
1.563687499999999
  1
-
 41
0.7
 72
     1
 11
513.5172273099696
 21
-211.70611816391579
 31
0.0
 73
     2
  0
TEXT
  5
23C
  8
DATA
 62
     7
 10
510.27379696213802
 20
-214.78796191391581
 30
0.0
 40
1.563687499999999
  1
on/off
 41
0.7
 72
     1
 11
513.37511050380465
 21
-214.0061181639158
 31
0.0
 73
     2
  0
TEXT
  5
23D
  8
DATA
 62
     7
 10
507.59058953096383
 20
-217.05617359936849
 30
0.0
 40
1.563687499999999
  1
push to talk
 41
0.7
 72
     1
 11
513.26416901013044
 21
-216.27432984936851
 31
0.0
 73
     2
  0
TEXT
  5
23E
  8
DATA
 62
     7
 10
507.348732533011
 20
-219.3879619139158
 30
0.0
 40
1.563687499999999
  1
push to mute
 41
0.7
 72
     1
 11
513.29595732467772
 21
-218.6061181639158
 31
0.0
 73
     2
  0
TEXT
  5
23F
  8
DATA
 62
     7
 10
513.15236689330277
 20
-221.6879619139159
 30
0.0
 40
1.563687499999999
  1
-
 41
0.7
 72
     1
 11
513.5172273099696
 21
-220.90611816391581
 31
0.0
 73
     2
  0
LINE
  5
240
  8
DATA
  6
CONTINUOUS
 62
     7
 10
479.510716079041
 20
-229.04676420060071
 30
0.0
 11
520.51071607904169
 21
-229.04676420060071
 31
0.0
  0
TEXT
  5
241
  8
DATA
 62
     7
 10
496.93978254241227
 20
-226.20096338226691
 30
0.0
 40
1.7374305555555549
  1
Made in Philippines
 41
0.7
 11
496.93978254241227
 21
-225.3322481044892
 31
0.0
 73
     2
  0
TEXT
  5
242
  8
DATA
 62
     7
 10
350.55019892939811
 20
-356.21256510416669
 30
0.0
 40
27.147352430555561
  1
設定スイッチ拡大図
 41
0.7
 72
     1
 11
450.0
 21
-342.63888888888891
 31
0.0
 73
     2
  0
LINE
  5
243
  8
DATA
  6
CONTINUOUS
 62
     7
 10
267.57887426567999
 20
-375.0
 30
0.0
 11
625.0
 21
-375.0
 31
0.0
  0
LINE
  5
244
  8
DATA
  6
CONTINUOUS
 62
     7
 10
-407.50000000000011
 20
-928.84720457049923
 30
0.0
 11
-407.50000000000011
 21
-930.74185978138871
 31
0.0
  0
LINE
  5
245
  8
DATA
  6
CONTINUOUS
 62
     7
 10
-392.5000000000004
 20
-928.84720457049923
 30
0.0
 11
-392.5000000000004
 21
-930.74185978138871
 31
0.0
  0
LINE
  5
246
  8
DATA
  6
CONTINUOUS
 62
     7
 10
-407.50000000000011
 20
-930.74185978138871
 30
0.0
 11
-392.5000000000004
 21
-930.74185978138871
 31
0.0
  0
ARC
  5
247
  8
DATA
  6
CONTINUOUS
 62
     7
 10
-400.00000000000023
 20
-913.29179783039956
 30
0.0
 40
17.269067110007288
 50
244.25907721116869
 51
295.7409227888316
  0
LINE
  5
248
  8
DATA
  6
CONTINUOUS
 62
     7
 10
-407.50000000000011
 20
-928.84720457049923
 30
0.0
 11
-407.50000000000011
 21
-926.15601142103435
 31
0.0
  0
LINE
  5
249
  8
DATA
  6
CONTINUOUS
 62
     7
 10
-392.5000000000004
 20
-928.84720457049923
 30
0.0
 11
-392.5000000000004
 21
-926.15601142103435
 31
0.0
  0
ARC
  5
24A
  8
DATA
  6
CONTINUOUS
 62
     7
 10
-400.00000000000023
 20
-935.46473378082567
 30
0.0
 40
8.9647337807910432
 50
43.525881076188398
 51
136.4741189238116
  0
ARC
  5
24B
  8
DATA
  6
CONTINUOUS
 62
     7
 10
-400.00000000000023
 20
-893.25409505605614
 30
0.0
 40
33.745904943978509
 50
257.15882689183712
 51
265.51730733112532
  0
ARC
  5
24C
  8
DATA
  6
CONTINUOUS
 62
     7
 10
-400.00000000000023
 20
-893.25409505605614
 30
0.0
 40
33.745904943978431
 50
274.48269266887468
 51
282.84117310816299
  0
ARC
  5
24D
  8
DATA
  6
CONTINUOUS
 62
     7
 10
-424.49999999999972
 20
533.0
 30
0.0
 40
1.0
 50
270.0
 51
0.0
  0
ARC
  5
24E
  8
DATA
  6
CONTINUOUS
 62
     7
 10
-421.779879122907
 20
533.0
 30
0.0
 40
1.0
 50
270.0
 51
359.05725357839623
  0
ARC
  5
24F
  8
DATA
  6
CONTINUOUS
 62
     7
 10
-378.220120877093
 20
533.0
 30
0.0
 40
1.000000000000038
 50
180.9427464216036
 51
270.0
  0
ARC
  5
250
  8
DATA
  6
CONTINUOUS
 62
     7
 10
-375.50000000000028
 20
533.0
 30
0.0
 40
1.0
 50
180.0
 51
270.0
  0
LINE
  5
251
  8
DATA
  6
CONTINUOUS
 62
     7
 10
-407.75445169763321
 20
-909.00000000000125
 30
0.0
 11
-406.50000000000023
 21
-891.00000000000102
 31
0.0
  0
LINE
  5
252
  8
DATA
  6
CONTINUOUS
 62
     7
 10
-392.24064376803148
 20
-909.00000000000125
 30
0.0
 11
-393.50000000000023
 21
-891.00000000000102
 31
0.0
  0
LINE
  5
253
  8
DATA
  6
CONTINUOUS
 62
     7
 10
-406.50000000000023
 20
-891.00000000000102
 30
0.0
 11
-393.50000000000023
 21
-891.00000000000102
 31
0.0
  0
LINE
  5
254
  8
DATA
  6
CONTINUOUS
 62
     7
 10
-403.90000000000009
 20
-891.00000000000102
 30
0.0
 11
-403.90000000000009
 21
-826.00000000000102
 31
0.0
  0
LINE
  5
255
  8
DATA
  6
CONTINUOUS
 62
     7
 10
-396.10000000000019
 20
-826.00000000000102
 30
0.0
 11
-396.10000000000019
 21
-891.00000000000102
 31
0.0
  0
LINE
  5
256
  8
DATA
  6
CONTINUOUS
 62
     7
 10
-404.65000000000009
 20
-826.00000000000102
 30
0.0
 11
-395.35000000000008
 21
-826.00000000000102
 31
0.0
  0
LINE
  5
257
  8
DATA
  6
CONTINUOUS
 62
     7
 10
-402.90000000000009
 20
-796.00000000000102
 30
0.0
 11
-397.10000000000008
 21
-796.00000000000102
 31
0.0
  0
LINE
  5
258
  8
DATA
  6
CONTINUOUS
 62
     7
 10
-404.65000000000009
 20
-826.00000000000102
 30
0.0
 11
-404.65000000000009
 21
-812.30555311231558
 31
0.0
  0
ARC
  5
259
  8
DATA
  6
CONTINUOUS
 62
     7
 10
-203.03516213755151
 20
-826.36363056630819
 30
0.0
 40
202.1581150361026
 50
171.36163156084439
 51
175.57378918524461
  0
ARC
  5
25A
  8
DATA
  6
CONTINUOUS
 62
     7
 10
-384.6499999999948
 20
-812.30555311231558
 30
0.0
 40
20.00000000000545
 50
175.5737891852462
 51
180.0
  0
LINE
  5
25B
  8
DATA
  6
CONTINUOUS
 62
     7
 10
-395.35000000000008
 20
-826.00000000000102
 30
0.0
 11
-395.35000000000008
 21
-812.30555311231558
 31
0.0
  0
ARC
  5
25C
  8
DATA
  6
CONTINUOUS
 62
     7
 10
-596.96483786244812
 20
-826.36363056630819
 30
0.0
 40
202.15811503610189
 50
4.4262108147554207
 51
8.6383684391556024
  0
ARC
  5
25D
  8
DATA
  6
CONTINUOUS
 62
     7
 10
-415.35000000000571
 20
-812.30555311231558
 30
0.0
 40
20.00000000000545
 50
0.0
 51
4.4262108147538592
  0
LINE
  5
25E
  8
DATA
  6
CONTINUOUS
 62
     7
 10
-402.90000000000009
 20
-796.00000000000102
 30
0.0
 11
-402.90000000000009
 21
-461.7767741700232
 31
0.0
  0
LINE
  5
25F
  8
DATA
  6
CONTINUOUS
 62
     7
 10
-397.10000000000008
 20
-796.00000000000102
 30
0.0
 11
-397.10000000000008
 21
-461.7767741700232
 31
0.0
  0
ARC
  5
260
  8
DATA
  6
CONTINUOUS
 62
     7
 10
-399.9975477328324
 20
-422.06249999999972
 30
0.0
 40
7.0625
 50
352.3718503314193
 51
41.2483837074044
  0
ARC
  5
261
  8
DATA
  6
CONTINUOUS
 62
     7
 10
-399.9975477328324
 20
-422.06249999999972
 30
0.0
 40
7.0625000000000311
 50
58.501390224458831
 51
70.908382580762023
  0
ARC
  5
262
  8
DATA
  6
CONTINUOUS
 62
     7
 10
-399.9975477328324
 20
-422.06249999999972
 30
0.0
 40
7.062500000000024
 50
84.393309384884006
 51
95.606690615116435
  0
ARC
  5
263
  8
DATA
  6
CONTINUOUS
 62
     7
 10
-399.9975477328324
 20
-422.06249999999972
 30
0.0
 40
7.0625000000000329
 50
109.0916174192389
 51
121.49860977554189
  0
ARC
  5
264
  8
DATA
  6
CONTINUOUS
 62
     7
 10
-399.9975477328324
 20
-422.06249999999972
 30
0.0
 40
7.0625000000000542
 50
138.7516162925962
 51
187.6281496685807
  0
LINE
  5
265
  8
DATA
  6
CONTINUOUS
 62
     7
 10
-406.99754773283229
 20
-422.9999999999996
 30
0.0
 11
-392.9975477328324
 21
-422.9999999999996
 31
0.0
  0
ARC
  5
266
  8
DATA
  6
CONTINUOUS
 62
     7
 10
-562.69101557211968
 20
-451.47092360874552
 30
0.0
 40
158.2752331192666
 50
4.9243864255455332
 51
10.362908106984481
  0
LINE
  5
267
  8
DATA
  6
CONTINUOUS
 62
     7
 10
-403.5652025408603
 20
-450.26165307853432
 30
0.0
 11
-405.00000000003769
 21
-437.88442196911751
 31
0.0
  0
ARC
  5
268
  8
DATA
  6
CONTINUOUS
 62
     7
 10
-237.30407989354521
 20
-451.47092360874552
 30
0.0
 40
158.2752331192666
 50
169.63709189301551
 51
175.07561357445439
  0
LINE
  5
269
  8
DATA
  6
CONTINUOUS
 62
     7
 10
-396.43479745914021
 20
-450.30396187589622
 30
0.0
 11
-394.99509546562712
 21
-437.88442196911751
 31
0.0
  0
ARC
  5
26A
  8
DATA
  6
CONTINUOUS
 62
     7
 10
-502.9000000000002
 20
-461.7767741700232
 30
0.0
 40
100.0
 50
0.0000000000000568
 51
6.6123467364558897
  0
ARC
  5
26B
  8
DATA
  6
CONTINUOUS
 62
     7
 10
-297.10000000000031
 20
-461.81908296738521
 30
0.0
 40
99.999999999999844
 50
173.38765326354411
 51
179.99999999999989
  0
LINE
  5
26C
  8
DATA
  6
CONTINUOUS
 62
     7
 10
-402.3075477328324
 20
-420.49999999999972
 30
0.0
 11
-400.6875477328324
 21
-420.49999999999972
 31
0.0
  0
LINE
  5
26D
  8
DATA
  6
CONTINUOUS
 62
     7
 10
-399.3075477328324
 20
-420.49999999999972
 30
0.0
 11
-397.68754773283251
 21
-420.49999999999972
 31
0.0
  0
LINE
  5
26E
  8
DATA
  6
CONTINUOUS
 62
     7
 10
-400.68754773283251
 20
-420.49999999999972
 30
0.0
 11
-400.68754773283251
 21
-415.03378701325721
 31
0.0
  0
LINE
  5
26F
  8
DATA
  6
CONTINUOUS
 62
     7
 10
-399.30754773283252
 20
-415.03378701325721
 30
0.0
 11
-399.30754773283252
 21
-420.49999999999972
 31
0.0
  0
LINE
  5
270
  8
DATA
  6
CONTINUOUS
 62
     7
 10
-397.68754773283251
 20
-420.49999999999972
 30
0.0
 11
-397.68754773283251
 21
-415.38846027506548
 31
0.0
  0
LINE
  5
271
  8
DATA
  6
CONTINUOUS
 62
     7
 10
-396.30754773283252
 20
-416.0406393033378
 30
0.0
 11
-396.30754773283252
 21
-420.49999999999972
 31
0.0
  0
LINE
  5
272
  8
DATA
  6
CONTINUOUS
 62
     7
 10
-394.68754773283251
 20
-418.41421806320909
 30
0.0
 11
-394.68754773283251
 21
-417.4060199721244
 31
0.0
  0
LINE
  5
273
  8
DATA
  6
CONTINUOUS
 62
     7
 10
-403.68754773283251
 20
-420.49999999999972
 30
0.0
 11
-403.68754773283251
 21
-416.0406393033378
 31
0.0
  0
LINE
  5
274
  8
DATA
  6
CONTINUOUS
 62
     7
 10
-402.3075477328324
 20
-415.38846027506548
 30
0.0
 11
-402.3075477328324
 21
-420.49999999999972
 31
0.0
  0
LINE
  5
275
  8
DATA
  6
CONTINUOUS
 62
     7
 10
-405.30754773283252
 20
-417.4060199721244
 30
0.0
 11
-405.30754773283252
 21
-418.41421806320909
 31
0.0
  0
ARC
  5
276
  8
DATA
  6
CONTINUOUS
 62
     7
 10
-399.9975477328324
 20
-422.07918867757871
 30
0.0
 40
6.451984935211069
 50
34.61350091417782
 51
55.115986107637781
  0
ARC
  5
277
  8
DATA
  6
CONTINUOUS
 62
     7
 10
-399.9975477328324
 20
-422.07918867757871
 30
0.0
 40
6.4519849352111134
 50
69.020778854025608
 51
83.860829308006046
  0
ARC
  5
278
  8
DATA
  6
CONTINUOUS
 62
     7
 10
-399.9975477328324
 20
-422.07918867757871
 30
0.0
 40
6.451984935211132
 50
96.139170691994451
 51
110.9792211459753
  0
ARC
  5
279
  8
DATA
  6
CONTINUOUS
 62
     7
 10
-399.9975477328324
 20
-422.07918867757871
 30
0.0
 40
6.4519849352111134
 50
124.8840138923633
 51
145.38649908582269
  0
LINE
  5
27A
  8
DATA
  6
CONTINUOUS
 62
     7
 10
-405.30754773283252
 20
-418.41421806320909
 30
0.0
 11
-405.30754773283252
 21
-420.49999999999972
 31
0.0
  0
LINE
  5
27B
  8
DATA
  6
CONTINUOUS
 62
     7
 10
-394.68754773283251
 20
-418.41421806320909
 30
0.0
 11
-394.68754773283251
 21
-420.49999999999972
 31
0.0
  0
LINE
  5
27C
  8
DATA
  6
CONTINUOUS
 62
     7
 10
-403.68754773283251
 20
-420.49999999999972
 30
0.0
 11
-405.30754773283252
 21
-420.49999999999972
 31
0.0
  0
LINE
  5
27D
  8
DATA
  6
CONTINUOUS
 62
     7
 10
-396.30754773283252
 20
-420.49999999999972
 30
0.0
 11
-394.68754773283251
 21
-420.49999999999972
 31
0.0
  0
LINE
  5
27E
  8
DATA
  6
CONTINUOUS
 62
     7
 10
-405.46572955126419
 20
-427.99999999999972
 30
0.0
 11
-401.09754773283242
 21
-427.99999999999972
 31
0.0
  0
LINE
  5
27F
  8
DATA
  6
CONTINUOUS
 62
     7
 10
-398.89754773283238
 20
-427.99999999999972
 30
0.0
 11
-394.52936591440078
 21
-427.99999999999972
 31
0.0
  0
LINE
  5
280
  8
DATA
  6
CONTINUOUS
 62
     7
 10
-398.89754773283249
 20
-427.99999999999972
 30
0.0
 11
-398.89754773283249
 21
-428.79999999999961
 31
0.0
  0
LINE
  5
281
  8
DATA
  6
CONTINUOUS
 62
     7
 10
-398.89754773283249
 20
-429.59999999999962
 30
0.0
 11
-398.89754773283249
 21
-430.39999999999958
 31
0.0
  0
LINE
  5
282
  8
DATA
  6
CONTINUOUS
 62
     7
 10
-398.89754773283249
 20
-431.19999999999959
 30
0.0
 11
-398.89754773283249
 21
-431.99999999999972
 31
0.0
  0
LINE
  5
283
  8
DATA
  6
CONTINUOUS
 62
     7
 10
-401.09754773283242
 20
-431.99999999999972
 30
0.0
 11
-401.09754773283242
 21
-431.19999999999959
 31
0.0
  0
LINE
  5
284
  8
DATA
  6
CONTINUOUS
 62
     7
 10
-401.09754773283242
 20
-430.39999999999958
 30
0.0
 11
-401.09754773283242
 21
-429.59999999999962
 31
0.0
  0
LINE
  5
285
  8
DATA
  6
CONTINUOUS
 62
     7
 10
-401.09754773283242
 20
-428.79999999999961
 30
0.0
 11
-401.09754773283242
 21
-427.99999999999972
 31
0.0
  0
LINE
  5
286
  8
DATA
  6
CONTINUOUS
 62
     7
 10
-405.34785855054849
 20
-428.79999999999961
 30
0.0
 11
-401.09754773283242
 21
-428.79999999999961
 31
0.0
  0
LINE
  5
287
  8
DATA
  6
CONTINUOUS
 62
     7
 10
-398.89754773283238
 20
-428.79999999999961
 30
0.0
 11
-394.64723691511642
 21
-428.79999999999961
 31
0.0
  0
LINE
  5
288
  8
DATA
  6
CONTINUOUS
 62
     7
 10
-405.23415888170678
 20
-429.59999999999962
 30
0.0
 11
-401.09754773283242
 21
-429.59999999999962
 31
0.0
  0
LINE
  5
289
  8
DATA
  6
CONTINUOUS
 62
     7
 10
-398.89754773283238
 20
-429.59999999999962
 30
0.0
 11
-394.76093658395803
 21
-429.59999999999962
 31
0.0
  0
LINE
  5
28A
  8
DATA
  6
CONTINUOUS
 62
     7
 10
-405.12462147436321
 20
-430.39999999999958
 30
0.0
 11
-401.09754773283242
 21
-430.39999999999958
 31
0.0
  0
LINE
  5
28B
  8
DATA
  6
CONTINUOUS
 62
     7
 10
-398.89754773283238
 20
-430.39999999999958
 30
0.0
 11
-394.87047399130148
 21
-430.39999999999958
 31
0.0
  0
LINE
  5
28C
  8
DATA
  6
CONTINUOUS
 62
     7
 10
-405.01923761504048
 20
-431.19999999999959
 30
0.0
 11
-401.09754773283242
 21
-431.19999999999959
 31
0.0
  0
LINE
  5
28D
  8
DATA
  6
CONTINUOUS
 62
     7
 10
-398.89754773283238
 20
-431.19999999999959
 30
0.0
 11
-394.97585785062449
 21
-431.19999999999959
 31
0.0
  0
LINE
  5
28E
  8
DATA
  6
CONTINUOUS
 62
     7
 10
-404.91799894360838
 20
-431.99999999999972
 30
0.0
 11
-401.09754773283242
 21
-431.99999999999972
 31
0.0
  0
LINE
  5
28F
  8
DATA
  6
CONTINUOUS
 62
     7
 10
-398.89754773283238
 20
-431.99999999999972
 30
0.0
 11
-395.07709652205648
 21
-431.99999999999972
 31
0.0
  0
ARC
  5
290
  8
DATA
  6
CONTINUOUS
 62
     7
 10
-561.99101557211964
 20
-451.47092360874552
 30
0.0
 40
158.27523311926649
 50
7.066392754499744
 51
7.3583034962293521
  0
ARC
  5
291
  8
DATA
  6
CONTINUOUS
 62
     7
 10
-561.99101557211964
 20
-451.47092360874552
 30
0.0
 40
158.2752331192666
 50
7.650406423232738
 51
7.9427095230826881
  0
ARC
  5
292
  8
DATA
  6
CONTINUOUS
 62
     7
 10
-561.99101557211964
 20
-451.47092360874552
 30
0.0
 40
158.27523311926649
 50
8.2352208316215982
 51
8.5279484350858734
  0
ARC
  5
293
  8
DATA
  6
CONTINUOUS
 62
     7
 10
-238.0040798935452
 20
-451.47092360874552
 30
0.0
 40
158.27523311926649
 50
171.4720515649143
 51
171.76477916837851
  0
ARC
  5
294
  8
DATA
  6
CONTINUOUS
 62
     7
 10
-238.0040798935452
 20
-451.47092360874552
 30
0.0
 40
158.2752331192666
 50
172.05729047691739
 51
172.34959357676729
  0
ARC
  5
295
  8
DATA
  6
CONTINUOUS
 62
     7
 10
-238.0040798935452
 20
-451.47092360874552
 30
0.0
 40
158.2752331192666
 50
172.64169650377079
 51
172.93360724550041
  0
LINE
  5
296
  8
DATA
  6
CONTINUOUS
 62
     7
 10
-402.90000000000009
 20
-461.7767741700232
 30
0.0
 11
-397.09999104982802
 21
-461.7767741700232
 31
0.0
  0
LINE
  5
297
  8
DATA
  6
CONTINUOUS
 62
     7
 10
-405.30754773283252
 20
-420.49999999999972
 30
0.0
 11
-403.68754773283251
 21
-418.8799999999996
 31
0.0
  0
LINE
  5
298
  8
DATA
  6
CONTINUOUS
 62
     7
 10
-402.3075477328324
 20
-417.49999999999972
 30
0.0
 11
-400.68754773283251
 21
-415.87999999999971
 31
0.0
  0
LINE
  5
299
  8
DATA
  6
CONTINUOUS
 62
     7
 10
-405.30754773283252
 20
-419.69999998807879
 30
0.0
 11
-403.68754773283251
 21
-418.07999998807878
 31
0.0
  0
LINE
  5
29A
  8
DATA
  6
CONTINUOUS
 62
     7
 10
-402.3075477328324
 20
-416.69999998807879
 30
0.0
 11
-401.38589511800922
 21
-415.77834737325571
 31
0.0
  0
LINE
  5
29B
  8
DATA
  6
CONTINUOUS
 62
     7
 10
-405.30754773283252
 20
-418.8999999761578
 30
0.0
 11
-403.68754773283251
 21
-417.2799999761578
 31
0.0
  0
LINE
  5
29C
  8
DATA
  6
CONTINUOUS
 62
     7
 10
-404.50754773283239
 20
-420.49999999999972
 30
0.0
 11
-403.68754773283251
 21
-419.67999999999961
 31
0.0
  0
LINE
  5
29D
  8
DATA
  6
CONTINUOUS
 62
     7
 10
-402.3075477328324
 20
-418.29999999999973
 30
0.0
 11
-400.68754773283251
 21
-416.67999999999972
 31
0.0
  0
LINE
  5
29E
  8
DATA
  6
CONTINUOUS
 62
     7
 10
-402.3075477328324
 20
-419.09999999999968
 30
0.0
 11
-400.6875477328324
 21
-417.47999999999951
 31
0.0
  0
LINE
  5
29F
  8
DATA
  6
CONTINUOUS
 62
     7
 10
-399.3075477328324
 20
-416.09999999999962
 30
0.0
 11
-398.92459239672343
 21
-415.71704466389059
 31
0.0
  0
LINE
  5
2A0
  8
DATA
  6
CONTINUOUS
 62
     7
 10
-402.3075477328324
 20
-419.89999999999969
 30
0.0
 11
-400.68754773283251
 21
-418.27999999999957
 31
0.0
  0
LINE
  5
2A1
  8
DATA
  6
CONTINUOUS
 62
     7
 10
-399.30754773283252
 20
-416.89999999999958
 30
0.0
 11
-398.2702595133922
 21
-415.86271178055938
 31
0.0
  0
LINE
  5
2A2
  8
DATA
  6
CONTINUOUS
 62
     7
 10
-402.10754773283242
 20
-420.49999999999972
 30
0.0
 11
-400.68754773283251
 21
-419.07999999999959
 31
0.0
  0
LINE
  5
2A3
  8
DATA
  6
CONTINUOUS
 62
     7
 10
-399.30754773283252
 20
-417.69999999999959
 30
0.0
 11
-397.68754773283251
 21
-416.0799999999997
 31
0.0
  0
LINE
  5
2A4
  8
DATA
  6
CONTINUOUS
 62
     7
 10
-401.30754773283252
 20
-420.49999999999972
 30
0.0
 11
-400.68754773283251
 21
-419.8799999999996
 31
0.0
  0
LINE
  5
2A5
  8
DATA
  6
CONTINUOUS
 62
     7
 10
-399.3075477328324
 20
-418.4999999999996
 30
0.0
 11
-397.68754773283251
 21
-416.87999999999971
 31
0.0
  0
LINE
  5
2A6
  8
DATA
  6
CONTINUOUS
 62
     7
 10
-399.3075477328324
 20
-419.29999999999961
 30
0.0
 11
-397.68754773283251
 21
-417.67999999999972
 31
0.0
  0
LINE
  5
2A7
  8
DATA
  6
CONTINUOUS
 62
     7
 10
-399.30754773283252
 20
-420.09999999999962
 30
0.0
 11
-397.68754773283251
 21
-418.47999999999962
 31
0.0
  0
LINE
  5
2A8
  8
DATA
  6
CONTINUOUS
 62
     7
 10
-396.30754773283252
 20
-417.09999999999962
 30
0.0
 11
-396.12566635038797
 21
-416.91811861755519
 31
0.0
  0
LINE
  5
2A9
  8
DATA
  6
CONTINUOUS
 62
     7
 10
-398.90754773283248
 20
-420.49999999999972
 30
0.0
 11
-397.68754773283251
 21
-419.27999999999957
 31
0.0
  0
LINE
  5
2AA
  8
DATA
  6
CONTINUOUS
 62
     7
 10
-396.30754773283252
 20
-417.89999999999958
 30
0.0
 11
-395.68646117723
 21
-417.27891344439729
 31
0.0
  0
LINE
  5
2AB
  8
DATA
  6
CONTINUOUS
 62
     7
 10
-398.10754773283242
 20
-420.49999999999972
 30
0.0
 11
-397.68754773283251
 21
-420.0799999999997
 31
0.0
  0
LINE
  5
2AC
  8
DATA
  6
CONTINUOUS
 62
     7
 10
-396.3075477328324
 20
-418.69999999999959
 30
0.0
 11
-395.28254736566851
 21
-417.67499963283558
 31
0.0
  0
LINE
  5
2AD
  8
DATA
  6
CONTINUOUS
 62
     7
 10
-396.30754773283252
 20
-419.49999999999972
 30
0.0
 11
-394.91383340793851
 21
-418.1062856751056
 31
0.0
  0
LINE
  5
2AE
  8
DATA
  6
CONTINUOUS
 62
     7
 10
-396.30754773283252
 20
-420.29999999999961
 30
0.0
 11
-394.68754773283229
 21
-418.67999999999961
 31
0.0
  0
LINE
  5
2AF
  8
DATA
  6
CONTINUOUS
 62
     7
 10
-395.7075477328325
 20
-420.49999999999972
 30
0.0
 11
-394.68754773283251
 21
-419.47999999999968
 31
0.0
  0
LINE
  5
2B0
  8
DATA
  6
CONTINUOUS
 62
     7
 10
-403.74956279837028
 20
-420.49999999999972
 30
0.0
 11
-405.3075477328324
 21
-418.94201506553742
 31
0.0
  0
LINE
  5
2B1
  8
DATA
  6
CONTINUOUS
 62
     7
 10
-403.68754773283251
 20
-419.76201506553741
 30
0.0
 11
-405.19427042054122
 21
-418.2552923778286
 31
0.0
  0
LINE
  5
2B2
  8
DATA
  6
CONTINUOUS
 62
     7
 10
-402.14956279837031
 20
-420.49999999999972
 30
0.0
 11
-402.3075477328324
 21
-420.3420150655374
 31
0.0
  0
LINE
  5
2B3
  8
DATA
  6
CONTINUOUS
 62
     7
 10
-403.68754773283251
 20
-418.9620150655374
 30
0.0
 11
-404.83720397813357
 21
-417.81235882023623
 31
0.0
  0
LINE
  5
2B4
  8
DATA
  6
CONTINUOUS
 62
     7
 10
-401.3495627983703
 20
-420.49999999999972
 30
0.0
 11
-402.3075477328324
 21
-419.54201506553738
 31
0.0
  0
LINE
  5
2B5
  8
DATA
  6
CONTINUOUS
 62
     7
 10
-403.68754773283229
 20
-418.16201506553739
 30
0.0
 11
-404.44478901385838
 21
-417.40477378451129
 31
0.0
  0
LINE
  5
2B6
  8
DATA
  6
CONTINUOUS
 62
     7
 10
-400.68754773283251
 20
-420.36201506553749
 30
0.0
 11
-402.3075477328324
 21
-418.74201506553737
 31
0.0
  0
LINE
  5
2B7
  8
DATA
  6
CONTINUOUS
 62
     7
 10
-403.68754773283229
 20
-417.36201506553738
 30
0.0
 11
-404.01720296698318
 21
-417.03235983138671
 31
0.0
  0
LINE
  5
2B8
  8
DATA
  6
CONTINUOUS
 62
     7
 10
-400.6875477328324
 20
-419.56201506553759
 30
0.0
 11
-402.3075477328324
 21
-417.9420150655373
 31
0.0
  0
LINE
  5
2B9
  8
DATA
  6
CONTINUOUS
 62
     7
 10
-398.94956279837032
 20
-420.49999999999972
 30
0.0
 11
-399.3075477328324
 21
-420.14201506553741
 31
0.0
  0
LINE
  5
2BA
  8
DATA
  6
CONTINUOUS
 62
     7
 10
-400.6875477328324
 20
-418.76201506553753
 30
0.0
 11
-402.3075477328324
 21
-417.14201506553741
 31
0.0
  0
LINE
  5
2BB
  8
DATA
  6
CONTINUOUS
 62
     7
 10
-398.14956279837031
 20
-420.49999999999972
 30
0.0
 11
-399.3075477328324
 21
-419.3420150655374
 31
0.0
  0
LINE
  5
2BC
  8
DATA
  6
CONTINUOUS
 62
     7
 10
-400.68754773283251
 20
-417.96201506553751
 30
0.0
 11
-402.3075477328324
 21
-416.3420150655374
 31
0.0
  0
LINE
  5
2BD
  8
DATA
  6
CONTINUOUS
 62
     7
 10
-397.68754773283251
 20
-420.1620150655375
 30
0.0
 11
-399.3075477328324
 21
-418.54201506553738
 31
0.0
  0
LINE
  5
2BE
  8
DATA
  6
CONTINUOUS
 62
     7
 10
-400.6875477328324
 20
-417.1620150655375
 30
0.0
 11
-401.92707923023943
 21
-415.92248356813042
 31
0.0
  0
LINE
  5
2BF
  8
DATA
  6
CONTINUOUS
 62
     7
 10
-397.68754773283251
 20
-419.36201506553749
 30
0.0
 11
-399.3075477328324
 21
-417.74201506553737
 31
0.0
  0
LINE
  5
2C0
  8
DATA
  6
CONTINUOUS
 62
     7
 10
-400.6875477328324
 20
-416.36201506553749
 30
0.0
 11
-401.29131383542079
 21
-415.75824896294881
 31
0.0
  0
LINE
  5
2C1
  8
DATA
  6
CONTINUOUS
 62
     7
 10
-395.74956279837022
 20
-420.49999999999972
 30
0.0
 11
-396.30754773283252
 21
-419.94201506553748
 31
0.0
  0
LINE
  5
2C2
  8
DATA
  6
CONTINUOUS
 62
     7
 10
-397.68754773283251
 20
-418.56201506553742
 30
0.0
 11
-399.30754773283252
 21
-416.94201506553742
 31
0.0
  0
LINE
  5
2C3
  8
DATA
  6
CONTINUOUS
 62
     7
 10
-397.68754773283251
 20
-417.76201506553741
 30
0.0
 11
-399.3075477328324
 21
-416.14201506553741
 31
0.0
  0
LINE
  5
2C4
  8
DATA
  6
CONTINUOUS
 62
     7
 10
-394.68754773283229
 20
-419.96201506553763
 30
0.0
 11
-396.3075477328324
 21
-418.34201506553751
 31
0.0
  0
LINE
  5
2C5
  8
DATA
  6
CONTINUOUS
 62
     7
 10
-397.68754773283251
 20
-416.96201506553751
 30
0.0
 11
-398.93411711772683
 21
-415.71544568064309
 31
0.0
  0
LINE
  5
2C6
  8
DATA
  6
CONTINUOUS
 62
     7
 10
-394.6875477328324
 20
-419.16201506553739
 30
0.0
 11
-396.3075477328324
 21
-417.5420150655375
 31
0.0
  0
LINE
  5
2C7
  8
DATA
  6
CONTINUOUS
 62
     7
 10
-397.68754773283251
 20
-416.1620150655375
 30
0.0
 11
-397.85689234767489
 21
-415.99267045069502
 31
0.0
  0
LINE
  5
2C8
  8
DATA
  6
CONTINUOUS
 62
     7
 10
-396.30754773283252
 20
-419.16580778376073
 30
0.0
 11
-394.97335551659347
 21
-420.49999999999972
 31
0.0
  0
LINE
  5
2C9
  8
DATA
  6
CONTINUOUS
 62
     7
 10
-403.90000000000009
 20
-891.00000000000102
 30
0.0
 11
-396.10000000000019
 21
-889.24024390224997
 31
0.0
  0
LINE
  5
2CA
  8
DATA
  6
CONTINUOUS
 62
     7
 10
-403.90000000000009
 20
-889.00000000000114
 30
0.0
 11
-396.10000000000019
 21
-887.24024390225009
 31
0.0
  0
LINE
  5
2CB
  8
DATA
  6
CONTINUOUS
 62
     7
 10
-403.90000000000009
 20
-888.20000000000118
 30
0.0
 11
-396.10000000000019
 21
-886.44024390225002
 31
0.0
  0
LINE
  5
2CC
  8
DATA
  6
CONTINUOUS
 62
     7
 10
-403.90000000000009
 20
-886.20000000000118
 30
0.0
 11
-396.10000000000019
 21
-884.44024390225002
 31
0.0
  0
LINE
  5
2CD
  8
DATA
  6
CONTINUOUS
 62
     7
 10
-403.90000000000009
 20
-885.40000000000111
 30
0.0
 11
-396.10000000000019
 21
-883.64024390225006
 31
0.0
  0
LINE
  5
2CE
  8
DATA
  6
CONTINUOUS
 62
     7
 10
-403.90000000000009
 20
-883.40000000000123
 30
0.0
 11
-396.10000000000019
 21
-881.64024390225006
 31
0.0
  0
LINE
  5
2CF
  8
DATA
  6
CONTINUOUS
 62
     7
 10
-403.90000000000009
 20
-882.60000000000105
 30
0.0
 11
-396.10000000000019
 21
-880.84024390225011
 31
0.0
  0
LINE
  5
2D0
  8
DATA
  6
CONTINUOUS
 62
     7
 10
-403.90000000000009
 20
-880.60000000000127
 30
0.0
 11
-396.10000000000019
 21
-878.84024390225034
 31
0.0
  0
LINE
  5
2D1
  8
DATA
  6
CONTINUOUS
 62
     7
 10
-403.90000000000009
 20
-879.80000000000098
 30
0.0
 11
-396.10000000000019
 21
-878.04024390224981
 31
0.0
  0
LINE
  5
2D2
  8
DATA
  6
CONTINUOUS
 62
     7
 10
-403.90000000000009
 20
-877.80000000000109
 30
0.0
 11
-396.10000000000019
 21
-876.04024390224993
 31
0.0
  0
LINE
  5
2D3
  8
DATA
  6
CONTINUOUS
 62
     7
 10
-403.90000000000009
 20
-877.00000000000102
 30
0.0
 11
-396.10000000000019
 21
-875.24024390225009
 31
0.0
  0
LINE
  5
2D4
  8
DATA
  6
CONTINUOUS
 62
     7
 10
-403.90000000000009
 20
-875.00000000000102
 30
0.0
 11
-396.10000000000019
 21
-873.24024390224997
 31
0.0
  0
LINE
  5
2D5
  8
DATA
  6
CONTINUOUS
 62
     7
 10
-403.90000000000009
 20
-874.20000000000107
 30
0.0
 11
-396.10000000000019
 21
-872.4402439022499
 31
0.0
  0
LINE
  5
2D6
  8
DATA
  6
CONTINUOUS
 62
     7
 10
-403.90000000000009
 20
-872.20000000000107
 30
0.0
 11
-396.10000000000019
 21
-870.44024390225002
 31
0.0
  0
LINE
  5
2D7
  8
DATA
  6
CONTINUOUS
 62
     7
 10
-403.90000000000009
 20
-871.40000000000123
 30
0.0
 11
-396.10000000000019
 21
-869.64024390225018
 31
0.0
  0
LINE
  5
2D8
  8
DATA
  6
CONTINUOUS
 62
     7
 10
-403.90000000000009
 20
-869.40000000000134
 30
0.0
 11
-396.10000000000019
 21
-867.64024390225006
 31
0.0
  0
LINE
  5
2D9
  8
DATA
  6
CONTINUOUS
 62
     7
 10
-403.90000000000009
 20
-868.60000000000105
 30
0.0
 11
-396.10000000000019
 21
-866.84024390224999
 31
0.0
  0
LINE
  5
2DA
  8
DATA
  6
CONTINUOUS
 62
     7
 10
-403.90000000000009
 20
-866.60000000000116
 30
0.0
 11
-396.10000000000019
 21
-864.84024390225022
 31
0.0
  0
LINE
  5
2DB
  8
DATA
  6
CONTINUOUS
 62
     7
 10
-403.90000000000009
 20
-865.80000000000109
 30
0.0
 11
-396.10000000000019
 21
-864.04024390225004
 31
0.0
  0
LINE
  5
2DC
  8
DATA
  6
CONTINUOUS
 62
     7
 10
-403.90000000000009
 20
-863.80000000000098
 30
0.0
 11
-396.10000000000019
 21
-862.04024390224981
 31
0.0
  0
LINE
  5
2DD
  8
DATA
  6
CONTINUOUS
 62
     7
 10
-403.90000000000009
 20
-863.00000000000091
 30
0.0
 11
-396.10000000000019
 21
-861.24024390225009
 31
0.0
  0
LINE
  5
2DE
  8
DATA
  6
CONTINUOUS
 62
     7
 10
-403.90000000000009
 20
-861.00000000000102
 30
0.0
 11
-396.10000000000019
 21
-859.24024390225009
 31
0.0
  0
LINE
  5
2DF
  8
DATA
  6
CONTINUOUS
 62
     7
 10
-403.90000000000009
 20
-860.20000000000118
 30
0.0
 11
-396.10000000000019
 21
-858.44024390225002
 31
0.0
  0
LINE
  5
2E0
  8
DATA
  6
CONTINUOUS
 62
     7
 10
-403.90000000000009
 20
-858.20000000000107
 30
0.0
 11
-396.10000000000019
 21
-856.4402439022499
 31
0.0
  0
LINE
  5
2E1
  8
DATA
  6
CONTINUOUS
 62
     7
 10
-403.90000000000009
 20
-857.40000000000123
 30
0.0
 11
-396.10000000000019
 21
-855.64024390225018
 31
0.0
  0
LINE
  5
2E2
  8
DATA
  6
CONTINUOUS
 62
     7
 10
-403.90000000000009
 20
-855.40000000000123
 30
0.0
 11
-396.10000000000019
 21
-853.64024390225018
 31
0.0
  0
LINE
  5
2E3
  8
DATA
  6
CONTINUOUS
 62
     7
 10
-403.90000000000009
 20
-854.60000000000105
 30
0.0
 11
-396.10000000000019
 21
-852.84024390225011
 31
0.0
  0
LINE
  5
2E4
  8
DATA
  6
CONTINUOUS
 62
     7
 10
-403.90000000000009
 20
-852.60000000000116
 30
0.0
 11
-396.10000000000019
 21
-850.84024390225022
 31
0.0
  0
LINE
  5
2E5
  8
DATA
  6
CONTINUOUS
 62
     7
 10
-403.90000000000009
 20
-851.80000000000109
 30
0.0
 11
-396.10000000000019
 21
-850.04024390224993
 31
0.0
  0
LINE
  5
2E6
  8
DATA
  6
CONTINUOUS
 62
     7
 10
-403.90000000000009
 20
-849.80000000000109
 30
0.0
 11
-396.10000000000019
 21
-848.04024390224993
 31
0.0
  0
LINE
  5
2E7
  8
DATA
  6
CONTINUOUS
 62
     7
 10
-403.90000000000009
 20
-849.00000000000102
 30
0.0
 11
-396.10000000000019
 21
-847.24024390224997
 31
0.0
  0
LINE
  5
2E8
  8
DATA
  6
CONTINUOUS
 62
     7
 10
-403.90000000000009
 20
-847.00000000000091
 30
0.0
 11
-396.10000000000019
 21
-845.24024390225009
 31
0.0
  0
LINE
  5
2E9
  8
DATA
  6
CONTINUOUS
 62
     7
 10
-403.90000000000009
 20
-846.20000000000118
 30
0.0
 11
-396.10000000000019
 21
-844.44024390225002
 31
0.0
  0
LINE
  5
2EA
  8
DATA
  6
CONTINUOUS
 62
     7
 10
-403.90000000000009
 20
-844.20000000000118
 30
0.0
 11
-396.10000000000019
 21
-842.44024390225002
 31
0.0
  0
LINE
  5
2EB
  8
DATA
  6
CONTINUOUS
 62
     7
 10
-403.90000000000009
 20
-843.40000000000111
 30
0.0
 11
-396.10000000000019
 21
-841.64024390225006
 31
0.0
  0
LINE
  5
2EC
  8
DATA
  6
CONTINUOUS
 62
     7
 10
-403.90000000000009
 20
-841.40000000000123
 30
0.0
 11
-396.10000000000019
 21
-839.64024390225018
 31
0.0
  0
LINE
  5
2ED
  8
DATA
  6
CONTINUOUS
 62
     7
 10
-403.90000000000009
 20
-840.60000000000127
 30
0.0
 11
-396.10000000000019
 21
-838.84024390225022
 31
0.0
  0
LINE
  5
2EE
  8
DATA
  6
CONTINUOUS
 62
     7
 10
-403.90000000000009
 20
-838.60000000000127
 30
0.0
 11
-396.10000000000019
 21
-836.84024390225011
 31
0.0
  0
LINE
  5
2EF
  8
DATA
  6
CONTINUOUS
 62
     7
 10
-403.90000000000009
 20
-837.80000000000098
 30
0.0
 11
-396.10000000000019
 21
-836.04024390224981
 31
0.0
  0
LINE
  5
2F0
  8
DATA
  6
CONTINUOUS
 62
     7
 10
-403.90000000000009
 20
-835.80000000000109
 30
0.0
 11
-396.10000000000019
 21
-834.04024390224993
 31
0.0
  0
LINE
  5
2F1
  8
DATA
  6
CONTINUOUS
 62
     7
 10
-403.90000000000009
 20
-835.00000000000102
 30
0.0
 11
-396.10000000000019
 21
-833.24024390224997
 31
0.0
  0
LINE
  5
2F2
  8
DATA
  6
CONTINUOUS
 62
     7
 10
-403.90000000000009
 20
-833.00000000000102
 30
0.0
 11
-396.10000000000019
 21
-831.24024390224997
 31
0.0
  0
LINE
  5
2F3
  8
DATA
  6
CONTINUOUS
 62
     7
 10
-403.90000000000009
 20
-832.20000000000107
 30
0.0
 11
-396.10000000000019
 21
-830.4402439022499
 31
0.0
  0
LINE
  5
2F4
  8
DATA
  6
CONTINUOUS
 62
     7
 10
-403.90000000000009
 20
-830.20000000000118
 30
0.0
 11
-396.10000000000019
 21
-828.44024390225002
 31
0.0
  0
LINE
  5
2F5
  8
DATA
  6
CONTINUOUS
 62
     7
 10
-403.90000000000009
 20
-829.40000000000123
 30
0.0
 11
-396.10000000000019
 21
-827.64024390225006
 31
0.0
  0
LINE
  5
2F6
  8
DATA
  6
CONTINUOUS
 62
     7
 10
-403.90000000000009
 20
-827.40000000000111
 30
0.0
 11
-397.69459459526519
 21
-826.00000000000102
 31
0.0
  0
LINE
  5
2F7
  8
DATA
  6
CONTINUOUS
 62
     7
 10
-403.90000000000009
 20
-826.60000000000105
 30
0.0
 11
-401.24054054082819
 21
-826.00000000000102
 31
0.0
  0
LINE
  5
2F8
  8
DATA
  6
CONTINUOUS
 62
     7
 10
-407.75445169763321
 20
508.99999999999511
 30
0.0
 11
-406.50000000000023
 21
490.99999999999523
 31
0.0
  0
LINE
  5
2F9
  8
DATA
  6
CONTINUOUS
 62
     7
 10
-392.24064376803148
 20
508.99999999999511
 30
0.0
 11
-393.50000000000023
 21
490.99999999999523
 31
0.0
  0
LINE
  5
2FA
  8
DATA
  6
CONTINUOUS
 62
     7
 10
-406.50000000000023
 20
490.99999999999523
 30
0.0
 11
-393.50000000000023
 21
490.99999999999523
 31
0.0
  0
LINE
  5
2FB
  8
DATA
  6
CONTINUOUS
 62
     7
 10
-403.90000000000009
 20
490.99999999999523
 30
0.0
 11
-403.90000000000009
 21
425.99999999999511
 31
0.0
  0
LINE
  5
2FC
  8
DATA
  6
CONTINUOUS
 62
     7
 10
-396.10000000000019
 20
425.99999999999511
 30
0.0
 11
-396.10000000000019
 21
490.99999999999523
 31
0.0
  0
LINE
  5
2FD
  8
DATA
  6
CONTINUOUS
 62
     7
 10
-404.65000000000009
 20
425.99999999999511
 30
0.0
 11
-395.35000000000008
 21
425.99999999999511
 31
0.0
  0
LINE
  5
2FE
  8
DATA
  6
CONTINUOUS
 62
     7
 10
-402.90000000000009
 20
395.99999999999471
 30
0.0
 11
-397.10000000000008
 21
395.99999999999471
 31
0.0
  0
LINE
  5
2FF
  8
DATA
  6
CONTINUOUS
 62
     7
 10
-404.65000000000009
 20
425.99999999999511
 30
0.0
 11
-404.65000000000009
 21
412.30555311230972
 31
0.0
  0
ARC
  5
300
  8
DATA
  6
CONTINUOUS
 62
     7
 10
-203.03516213755151
 20
426.36363056630228
 30
0.0
 40
202.15811503610249
 50
184.42621081475531
 51
188.6383684391557
  0
ARC
  5
301
  8
DATA
  6
CONTINUOUS
 62
     7
 10
-384.6499999999948
 20
412.30555311230972
 30
0.0
 40
20.00000000000545
 50
180.0
 51
184.42621081475411
  0
LINE
  5
302
  8
DATA
  6
CONTINUOUS
 62
     7
 10
-395.35000000000008
 20
425.99999999999511
 30
0.0
 11
-395.35000000000008
 21
412.30555311230972
 31
0.0
  0
ARC
  5
303
  8
DATA
  6
CONTINUOUS
 62
     7
 10
-596.96483786244812
 20
426.36363056630228
 30
0.0
 40
202.158115036102
 50
351.36163156084427
 51
355.57378918524449
  0
ARC
  5
304
  8
DATA
  6
CONTINUOUS
 62
     7
 10
-415.35000000000571
 20
412.30555311230972
 30
0.0
 40
20.00000000000545
 50
355.5737891852458
 51
0.0
  0
LINE
  5
305
  8
DATA
  6
CONTINUOUS
 62
     7
 10
-402.90000000000009
 20
395.99999999999471
 30
0.0
 11
-402.90000000000009
 21
61.776774170016779
 31
0.0
  0
LINE
  5
306
  8
DATA
  6
CONTINUOUS
 62
     7
 10
-397.10000000000008
 20
395.99999999999471
 30
0.0
 11
-397.10000000000008
 21
61.81908296737879
 31
0.0
  0
ARC
  5
307
  8
DATA
  6
CONTINUOUS
 62
     7
 10
-399.9975477328324
 20
22.062499999993641
 30
0.0
 40
7.0624999999999307
 50
318.751616292596
 51
7.6281496685807042
  0
ARC
  5
308
  8
DATA
  6
CONTINUOUS
 62
     7
 10
-399.9975477328324
 20
22.062499999993641
 30
0.0
 40
7.0624999999999956
 50
289.0916174192381
 51
301.4986097755413
  0
ARC
  5
309
  8
DATA
  6
CONTINUOUS
 62
     7
 10
-399.9975477328324
 20
22.062499999993641
 30
0.0
 40
7.0625000000000302
 50
264.39330938488359
 51
275.60669061511601
  0
ARC
  5
30A
  8
DATA
  6
CONTINUOUS
 62
     7
 10
-399.9975477328324
 20
22.062499999993641
 30
0.0
 40
7.0625000000000409
 50
238.50139022445771
 51
250.90838258076101
  0
ARC
  5
30B
  8
DATA
  6
CONTINUOUS
 62
     7
 10
-399.9975477328324
 20
22.062499999993641
 30
0.0
 40
7.0625
 50
172.3718503314193
 51
221.24838370740349
  0
LINE
  5
30C
  8
DATA
  6
CONTINUOUS
 62
     7
 10
-406.99754773283229
 20
22.999999999993641
 30
0.0
 11
-392.9975477328324
 21
22.999999999993641
 31
0.0
  0
ARC
  5
30D
  8
DATA
  6
CONTINUOUS
 62
     7
 10
-562.69101557211968
 20
51.470923608739163
 30
0.0
 40
158.2752331192666
 50
349.63709189301562
 51
355.07561357445451
  0
LINE
  5
30E
  8
DATA
  6
CONTINUOUS
 62
     7
 10
-403.5652025408603
 20
50.261653078527956
 30
0.0
 11
-405.00000000003769
 21
37.884421969111322
 31
0.0
  0
ARC
  5
30F
  8
DATA
  6
CONTINUOUS
 62
     7
 10
-237.30407989354521
 20
51.470923608739163
 30
0.0
 40
158.27523311926649
 50
184.92438642554549
 51
190.36290810698441
  0
LINE
  5
310
  8
DATA
  6
CONTINUOUS
 62
     7
 10
-396.43479745914021
 20
50.303961875890018
 30
0.0
 11
-394.99509546562712
 21
37.884421969111322
 31
0.0
  0
ARC
  5
311
  8
DATA
  6
CONTINUOUS
 62
     7
 10
-502.9000000000002
 20
61.776774170016779
 30
0.0
 40
100.0
 50
353.38765326354422
 51
360.0
  0
ARC
  5
312
  8
DATA
  6
CONTINUOUS
 62
     7
 10
-297.10000000000031
 20
61.81908296737879
 30
0.0
 40
99.999999999999787
 50
180.0
 51
186.61234673645569
  0
LINE
  5
313
  8
DATA
  6
CONTINUOUS
 62
     7
 10
-402.3075477328324
 20
20.499999999993641
 30
0.0
 11
-400.6875477328324
 21
20.499999999993641
 31
0.0
  0
LINE
  5
314
  8
DATA
  6
CONTINUOUS
 62
     7
 10
-399.3075477328324
 20
20.499999999993641
 30
0.0
 11
-397.68754773283251
 21
20.499999999993641
 31
0.0
  0
LINE
  5
315
  8
DATA
  6
CONTINUOUS
 62
     7
 10
-400.68754773283251
 20
20.499999999993641
 30
0.0
 11
-400.68754773283251
 21
15.033787013251301
 31
0.0
  0
LINE
  5
316
  8
DATA
  6
CONTINUOUS
 62
     7
 10
-399.30754773283252
 20
15.033787013251301
 30
0.0
 11
-399.30754773283252
 21
20.49999999999369
 31
0.0
  0
LINE
  5
317
  8
DATA
  6
CONTINUOUS
 62
     7
 10
-397.68754773283251
 20
20.499999999993641
 30
0.0
 11
-397.68754773283251
 21
15.388460275059449
 31
0.0
  0
LINE
  5
318
  8
DATA
  6
CONTINUOUS
 62
     7
 10
-396.30754773283252
 20
16.04063930333183
 30
0.0
 11
-396.30754773283252
 21
20.49999999999369
 31
0.0
  0
LINE
  5
319
  8
DATA
  6
CONTINUOUS
 62
     7
 10
-394.68754773283251
 20
18.41421806320329
 30
0.0
 11
-394.68754773283251
 21
17.406019972118479
 31
0.0
  0
LINE
  5
31A
  8
DATA
  6
CONTINUOUS
 62
     7
 10
-403.68754773283251
 20
20.499999999993641
 30
0.0
 11
-403.68754773283251
 21
16.04063930333183
 31
0.0
  0
LINE
  5
31B
  8
DATA
  6
CONTINUOUS
 62
     7
 10
-402.3075477328324
 20
15.38846027505951
 30
0.0
 11
-402.3075477328324
 21
20.49999999999369
 31
0.0
  0
LINE
  5
31C
  8
DATA
  6
CONTINUOUS
 62
     7
 10
-405.30754773283252
 20
17.406019972118539
 30
0.0
 11
-405.30754773283252
 21
18.41421806320329
 31
0.0
  0
ARC
  5
31D
  8
DATA
  6
CONTINUOUS
 62
     7
 10
-399.9975477328324
 20
22.079188677572692
 30
0.0
 40
6.4519849352110477
 50
304.88401389236247
 51
325.38649908582221
  0
ARC
  5
31E
  8
DATA
  6
CONTINUOUS
 62
     7
 10
-399.9975477328324
 20
22.079188677572692
 30
0.0
 40
6.451984935211069
 50
276.13917069199402
 51
290.97922114597458
  0
ARC
  5
31F
  8
DATA
  6
CONTINUOUS
 62
     7
 10
-399.9975477328324
 20
22.079188677572692
 30
0.0
 40
6.4519849352111001
 50
249.02077885402451
 51
263.86082930800552
  0
ARC
  5
320
  8
DATA
  6
CONTINUOUS
 62
     7
 10
-399.9975477328324
 20
22.079188677572692
 30
0.0
 40
6.451984935211164
 50
214.61350091417719
 51
235.1159861076367
  0
LINE
  5
321
  8
DATA
  6
CONTINUOUS
 62
     7
 10
-405.30754773283252
 20
18.41421806320329
 30
0.0
 11
-405.30754773283252
 21
20.49999999999369
 31
0.0
  0
LINE
  5
322
  8
DATA
  6
CONTINUOUS
 62
     7
 10
-394.68754773283251
 20
18.41421806320329
 30
0.0
 11
-394.68754773283251
 21
20.499999999993751
 31
0.0
  0
LINE
  5
323
  8
DATA
  6
CONTINUOUS
 62
     7
 10
-403.68754773283251
 20
20.499999999993641
 30
0.0
 11
-405.30754773283252
 21
20.499999999993641
 31
0.0
  0
LINE
  5
324
  8
DATA
  6
CONTINUOUS
 62
     7
 10
-396.30754773283252
 20
20.49999999999369
 30
0.0
 11
-394.68754773283251
 21
20.49999999999369
 31
0.0
  0
LINE
  5
325
  8
DATA
  6
CONTINUOUS
 62
     7
 10
-405.46572955126419
 20
27.99999999999358
 30
0.0
 11
-401.09754773283242
 21
27.99999999999358
 31
0.0
  0
LINE
  5
326
  8
DATA
  6
CONTINUOUS
 62
     7
 10
-398.89754773283238
 20
27.99999999999358
 30
0.0
 11
-394.52936591440078
 21
27.99999999999358
 31
0.0
  0
LINE
  5
327
  8
DATA
  6
CONTINUOUS
 62
     7
 10
-398.89754773283249
 20
27.99999999999358
 30
0.0
 11
-398.89754773283249
 21
28.799999999993592
 31
0.0
  0
LINE
  5
328
  8
DATA
  6
CONTINUOUS
 62
     7
 10
-398.89754773283249
 20
29.599999999993599
 30
0.0
 11
-398.89754773283249
 21
30.399999999993561
 31
0.0
  0
LINE
  5
329
  8
DATA
  6
CONTINUOUS
 62
     7
 10
-398.89754773283249
 20
31.199999999993508
 30
0.0
 11
-398.89754773283249
 21
31.99999999999358
 31
0.0
  0
LINE
  5
32A
  8
DATA
  6
CONTINUOUS
 62
     7
 10
-401.09754773283242
 20
31.99999999999358
 30
0.0
 11
-401.09754773283242
 21
31.199999999993508
 31
0.0
  0
LINE
  5
32B
  8
DATA
  6
CONTINUOUS
 62
     7
 10
-401.09754773283242
 20
30.399999999993561
 30
0.0
 11
-401.09754773283242
 21
29.599999999993599
 31
0.0
  0
LINE
  5
32C
  8
DATA
  6
CONTINUOUS
 62
     7
 10
-401.09754773283242
 20
28.799999999993592
 30
0.0
 11
-401.09754773283242
 21
27.99999999999358
 31
0.0
  0
LINE
  5
32D
  8
DATA
  6
CONTINUOUS
 62
     7
 10
-405.34785855054849
 20
28.799999999993592
 30
0.0
 11
-401.09754773283242
 21
28.799999999993592
 31
0.0
  0
LINE
  5
32E
  8
DATA
  6
CONTINUOUS
 62
     7
 10
-398.89754773283238
 20
28.799999999993592
 30
0.0
 11
-394.64723691511642
 21
28.799999999993592
 31
0.0
  0
LINE
  5
32F
  8
DATA
  6
CONTINUOUS
 62
     7
 10
-405.23415888170678
 20
29.599999999993599
 30
0.0
 11
-401.09754773283242
 21
29.599999999993599
 31
0.0
  0
LINE
  5
330
  8
DATA
  6
CONTINUOUS
 62
     7
 10
-398.89754773283238
 20
29.599999999993599
 30
0.0
 11
-394.76093658395803
 21
29.599999999993599
 31
0.0
  0
LINE
  5
331
  8
DATA
  6
CONTINUOUS
 62
     7
 10
-405.12462147436321
 20
30.399999999993561
 30
0.0
 11
-401.09754773283242
 21
30.399999999993561
 31
0.0
  0
LINE
  5
332
  8
DATA
  6
CONTINUOUS
 62
     7
 10
-398.89754773283238
 20
30.399999999993561
 30
0.0
 11
-394.87047399130148
 21
30.399999999993561
 31
0.0
  0
LINE
  5
333
  8
DATA
  6
CONTINUOUS
 62
     7
 10
-405.01923761504048
 20
31.199999999993569
 30
0.0
 11
-401.09754773283242
 21
31.199999999993569
 31
0.0
  0
LINE
  5
334
  8
DATA
  6
CONTINUOUS
 62
     7
 10
-398.89754773283238
 20
31.199999999993569
 30
0.0
 11
-394.97585785062449
 21
31.199999999993569
 31
0.0
  0
LINE
  5
335
  8
DATA
  6
CONTINUOUS
 62
     7
 10
-404.91799894360838
 20
31.99999999999358
 30
0.0
 11
-401.09754773283242
 21
31.99999999999358
 31
0.0
  0
LINE
  5
336
  8
DATA
  6
CONTINUOUS
 62
     7
 10
-398.89754773283238
 20
31.99999999999358
 30
0.0
 11
-395.07709652205648
 21
31.99999999999358
 31
0.0
  0
ARC
  5
337
  8
DATA
  6
CONTINUOUS
 62
     7
 10
-561.99101557211964
 20
51.470923608739163
 30
0.0
 40
158.27523311926649
 50
352.64169650377067
 51
352.93360724550041
  0
ARC
  5
338
  8
DATA
  6
CONTINUOUS
 62
     7
 10
-561.99101557211964
 20
51.470923608739163
 30
0.0
 40
158.27523311926649
 50
352.05729047691727
 51
352.3495935767674
  0
ARC
  5
339
  8
DATA
  6
CONTINUOUS
 62
     7
 10
-561.99101557211964
 20
51.470923608739163
 30
0.0
 40
158.27523311926649
 50
351.4720515649143
 51
351.76477916837848
  0
ARC
  5
33A
  8
DATA
  6
CONTINUOUS
 62
     7
 10
-238.0040798935452
 20
51.470923608739163
 30
0.0
 40
158.27523311926649
 50
188.2352208316214
 51
188.5279484350857
  0
ARC
  5
33B
  8
DATA
  6
CONTINUOUS
 62
     7
 10
-238.0040798935452
 20
51.470923608739163
 30
0.0
 40
158.2752331192666
 50
187.65040642323251
 51
187.9427095230825
  0
ARC
  5
33C
  8
DATA
  6
CONTINUOUS
 62
     7
 10
-238.0040798935452
 20
51.470923608739163
 30
0.0
 40
158.2752331192666
 50
187.06639275449959
 51
187.35830349622921
  0
LINE
  5
33D
  8
DATA
  6
CONTINUOUS
 62
     7
 10
-402.90000000000009
 20
61.776774170016658
 30
0.0
 11
-397.09999104982802
 21
61.776774170016658
 31
0.0
  0
LINE
  5
33E
  8
DATA
  6
CONTINUOUS
 62
     7
 10
-405.30754773283252
 20
20.49999999999369
 30
0.0
 11
-403.68754773283251
 21
18.879999999993679
 31
0.0
  0
LINE
  5
33F
  8
DATA
  6
CONTINUOUS
 62
     7
 10
-402.3075477328324
 20
17.49999999999369
 30
0.0
 11
-400.68754773283251
 21
15.879999999993739
 31
0.0
  0
LINE
  5
340
  8
DATA
  6
CONTINUOUS
 62
     7
 10
-405.30754773283252
 20
19.699999988072761
 30
0.0
 11
-403.68754773283251
 21
18.07999998807281
 31
0.0
  0
LINE
  5
341
  8
DATA
  6
CONTINUOUS
 62
     7
 10
-402.3075477328324
 20
16.699999988072818
 30
0.0
 11
-401.38589511800922
 21
15.77834737324963
 31
0.0
  0
LINE
  5
342
  8
DATA
  6
CONTINUOUS
 62
     7
 10
-405.30754773283252
 20
18.899999976151829
 30
0.0
 11
-403.68754773283251
 21
17.279999976151881
 31
0.0
  0
LINE
  5
343
  8
DATA
  6
CONTINUOUS
 62
     7
 10
-404.50754773283239
 20
20.499999999993641
 30
0.0
 11
-403.68754773283251
 21
19.679999999993701
 31
0.0
  0
LINE
  5
344
  8
DATA
  6
CONTINUOUS
 62
     7
 10
-402.3075477328324
 20
18.299999999993702
 30
0.0
 11
-400.68754773283251
 21
16.67999999999369
 31
0.0
  0
LINE
  5
345
  8
DATA
  6
CONTINUOUS
 62
     7
 10
-402.3075477328324
 20
19.099999999993649
 30
0.0
 11
-400.6875477328324
 21
17.479999999993652
 31
0.0
  0
LINE
  5
346
  8
DATA
  6
CONTINUOUS
 62
     7
 10
-399.3075477328324
 20
16.099999999993649
 30
0.0
 11
-398.92459239672343
 21
15.71704466388468
 31
0.0
  0
LINE
  5
347
  8
DATA
  6
CONTINUOUS
 62
     7
 10
-402.3075477328324
 20
19.899999999993732
 30
0.0
 11
-400.68754773283251
 21
18.279999999993709
 31
0.0
  0
LINE
  5
348
  8
DATA
  6
CONTINUOUS
 62
     7
 10
-399.30754773283252
 20
16.899999999993721
 30
0.0
 11
-398.2702595133922
 21
15.86271178055347
 31
0.0
  0
LINE
  5
349
  8
DATA
  6
CONTINUOUS
 62
     7
 10
-402.10754773283242
 20
20.499999999993641
 30
0.0
 11
-400.68754773283251
 21
19.079999999993671
 31
0.0
  0
LINE
  5
34A
  8
DATA
  6
CONTINUOUS
 62
     7
 10
-399.30754773283252
 20
17.699999999993679
 30
0.0
 11
-397.68754773283251
 21
16.079999999993671
 31
0.0
  0
LINE
  5
34B
  8
DATA
  6
CONTINUOUS
 62
     7
 10
-401.30754773283252
 20
20.49999999999369
 30
0.0
 11
-400.68754773283251
 21
19.879999999993679
 31
0.0
  0
LINE
  5
34C
  8
DATA
  6
CONTINUOUS
 62
     7
 10
-399.3075477328324
 20
18.49999999999363
 30
0.0
 11
-397.68754773283251
 21
16.879999999993679
 31
0.0
  0
LINE
  5
34D
  8
DATA
  6
CONTINUOUS
 62
     7
 10
-399.3075477328324
 20
19.299999999993702
 30
0.0
 11
-397.68754773283251
 21
17.679999999993701
 31
0.0
  0
LINE
  5
34E
  8
DATA
  6
CONTINUOUS
 62
     7
 10
-399.30754773283252
 20
20.09999999999366
 30
0.0
 11
-397.68754773283251
 21
18.479999999993709
 31
0.0
  0
LINE
  5
34F
  8
DATA
  6
CONTINUOUS
 62
     7
 10
-396.30754773283252
 20
17.099999999993649
 30
0.0
 11
-396.12566635038797
 21
16.918118617549219
 31
0.0
  0
LINE
  5
350
  8
DATA
  6
CONTINUOUS
 62
     7
 10
-398.90754773283248
 20
20.49999999999369
 30
0.0
 11
-397.68754773283251
 21
19.279999999993709
 31
0.0
  0
LINE
  5
351
  8
DATA
  6
CONTINUOUS
 62
     7
 10
-396.30754773283252
 20
17.899999999993732
 30
0.0
 11
-395.68646117723
 21
17.278913444391261
 31
0.0
  0
LINE
  5
352
  8
DATA
  6
CONTINUOUS
 62
     7
 10
-398.10754773283242
 20
20.49999999999369
 30
0.0
 11
-397.68754773283251
 21
20.079999999993682
 31
0.0
  0
LINE
  5
353
  8
DATA
  6
CONTINUOUS
 62
     7
 10
-396.3075477328324
 20
18.699999999993679
 30
0.0
 11
-395.28254736566851
 21
17.674999632829671
 31
0.0
  0
LINE
  5
354
  8
DATA
  6
CONTINUOUS
 62
     7
 10
-396.30754773283252
 20
19.499999999993751
 30
0.0
 11
-394.91383340793851
 21
18.106285675099681
 31
0.0
  0
LINE
  5
355
  8
DATA
  6
CONTINUOUS
 62
     7
 10
-396.30754773283252
 20
20.299999999993702
 30
0.0
 11
-394.68754773283229
 21
18.67999999999364
 31
0.0
  0
LINE
  5
356
  8
DATA
  6
CONTINUOUS
 62
     7
 10
-395.7075477328325
 20
20.499999999993641
 30
0.0
 11
-394.68754773283251
 21
19.479999999993709
 31
0.0
  0
LINE
  5
357
  8
DATA
  6
CONTINUOUS
 62
     7
 10
-403.74956279837028
 20
20.499999999993641
 30
0.0
 11
-405.3075477328324
 21
18.94201506553151
 31
0.0
  0
LINE
  5
358
  8
DATA
  6
CONTINUOUS
 62
     7
 10
-403.68754773283251
 20
19.76201506553144
 30
0.0
 11
-405.19427042054122
 21
18.25529237782257
 31
0.0
  0
LINE
  5
359
  8
DATA
  6
CONTINUOUS
 62
     7
 10
-402.14956279837031
 20
20.49999999999369
 30
0.0
 11
-402.3075477328324
 21
20.34201506553142
 31
0.0
  0
LINE
  5
35A
  8
DATA
  6
CONTINUOUS
 62
     7
 10
-403.68754773283251
 20
18.962015065531489
 30
0.0
 11
-404.83720397813357
 21
17.812358820230308
 31
0.0
  0
LINE
  5
35B
  8
DATA
  6
CONTINUOUS
 62
     7
 10
-401.3495627983703
 20
20.499999999993641
 30
0.0
 11
-402.3075477328324
 21
19.542015065531469
 31
0.0
  0
LINE
  5
35C
  8
DATA
  6
CONTINUOUS
 62
     7
 10
-403.68754773283229
 20
18.162015065531481
 30
0.0
 11
-404.44478901385838
 21
17.404773784505441
 31
0.0
  0
LINE
  5
35D
  8
DATA
  6
CONTINUOUS
 62
     7
 10
-400.68754773283251
 20
20.36201506553147
 30
0.0
 11
-402.3075477328324
 21
18.742015065531461
 31
0.0
  0
LINE
  5
35E
  8
DATA
  6
CONTINUOUS
 62
     7
 10
-403.68754773283229
 20
17.362015065531519
 30
0.0
 11
-404.01720296698318
 21
17.032359831380688
 31
0.0
  0
LINE
  5
35F
  8
DATA
  6
CONTINUOUS
 62
     7
 10
-400.6875477328324
 20
19.562015065531511
 30
0.0
 11
-402.3075477328324
 21
17.94201506553145
 31
0.0
  0
LINE
  5
360
  8
DATA
  6
CONTINUOUS
 62
     7
 10
-398.94956279837032
 20
20.499999999993641
 30
0.0
 11
-399.3075477328324
 21
20.142015065531499
 31
0.0
  0
LINE
  5
361
  8
DATA
  6
CONTINUOUS
 62
     7
 10
-400.6875477328324
 20
18.7620150655315
 30
0.0
 11
-402.3075477328324
 21
17.142015065531488
 31
0.0
  0
LINE
  5
362
  8
DATA
  6
CONTINUOUS
 62
     7
 10
-398.14956279837031
 20
20.49999999999369
 30
0.0
 11
-399.3075477328324
 21
19.342015065531541
 31
0.0
  0
LINE
  5
363
  8
DATA
  6
CONTINUOUS
 62
     7
 10
-400.68754773283251
 20
17.962015065531489
 30
0.0
 11
-402.3075477328324
 21
16.342015065531431
 31
0.0
  0
LINE
  5
364
  8
DATA
  6
CONTINUOUS
 62
     7
 10
-397.68754773283251
 20
20.162015065531481
 30
0.0
 11
-399.3075477328324
 21
18.54201506553153
 31
0.0
  0
LINE
  5
365
  8
DATA
  6
CONTINUOUS
 62
     7
 10
-400.6875477328324
 20
17.16201506553147
 30
0.0
 11
-401.92707923023943
 21
15.92248356812456
 31
0.0
  0
LINE
  5
366
  8
DATA
  6
CONTINUOUS
 62
     7
 10
-397.68754773283251
 20
19.362015065531459
 30
0.0
 11
-399.3075477328324
 21
17.742015065531511
 31
0.0
  0
LINE
  5
367
  8
DATA
  6
CONTINUOUS
 62
     7
 10
-400.6875477328324
 20
16.362015065531519
 30
0.0
 11
-401.29131383542079
 21
15.75824896294295
 31
0.0
  0
LINE
  5
368
  8
DATA
  6
CONTINUOUS
 62
     7
 10
-395.74956279837022
 20
20.499999999993751
 30
0.0
 11
-396.30754773283252
 21
19.94201506553145
 31
0.0
  0
LINE
  5
369
  8
DATA
  6
CONTINUOUS
 62
     7
 10
-397.68754773283251
 20
18.562015065531451
 30
0.0
 11
-399.30754773283252
 21
16.94201506553145
 31
0.0
  0
LINE
  5
36A
  8
DATA
  6
CONTINUOUS
 62
     7
 10
-397.68754773283251
 20
17.7620150655315
 30
0.0
 11
-399.3075477328324
 21
16.142015065531488
 31
0.0
  0
LINE
  5
36B
  8
DATA
  6
CONTINUOUS
 62
     7
 10
-394.68754773283229
 20
19.962015065531538
 30
0.0
 11
-396.3075477328324
 21
18.342015065531541
 31
0.0
  0
LINE
  5
36C
  8
DATA
  6
CONTINUOUS
 62
     7
 10
-397.68754773283251
 20
16.962015065531489
 30
0.0
 11
-398.93411711772683
 21
15.71544568063711
 31
0.0
  0
LINE
  5
36D
  8
DATA
  6
CONTINUOUS
 62
     7
 10
-394.6875477328324
 20
19.162015065531481
 30
0.0
 11
-396.3075477328324
 21
17.542015065531469
 31
0.0
  0
LINE
  5
36E
  8
DATA
  6
CONTINUOUS
 62
     7
 10
-397.68754773283251
 20
16.16201506553147
 30
0.0
 11
-397.85689234767489
 21
15.99267045068904
 31
0.0
  0
LINE
  5
36F
  8
DATA
  6
CONTINUOUS
 62
     7
 10
-396.30754773283252
 20
19.165807783754762
 30
0.0
 11
-394.97335551659347
 21
20.49999999999369
 31
0.0
  0
LINE
  5
370
  8
DATA
  6
CONTINUOUS
 62
     7
 10
-403.90000000000009
 20
490.99999999999523
 30
0.0
 11
-396.10000000000019
 21
489.24024390224417
 31
0.0
  0
LINE
  5
371
  8
DATA
  6
CONTINUOUS
 62
     7
 10
-403.90000000000009
 20
488.99999999999511
 30
0.0
 11
-396.10000000000019
 21
487.24024390224412
 31
0.0
  0
LINE
  5
372
  8
DATA
  6
CONTINUOUS
 62
     7
 10
-403.90000000000009
 20
488.19999999999499
 30
0.0
 11
-396.10000000000019
 21
486.44024390224399
 31
0.0
  0
LINE
  5
373
  8
DATA
  6
CONTINUOUS
 62
     7
 10
-403.90000000000009
 20
486.19999999999499
 30
0.0
 11
-396.10000000000019
 21
484.44024390224399
 31
0.0
  0
LINE
  5
374
  8
DATA
  6
CONTINUOUS
 62
     7
 10
-403.90000000000009
 20
485.39999999999509
 30
0.0
 11
-396.10000000000019
 21
483.64024390224398
 31
0.0
  0
LINE
  5
375
  8
DATA
  6
CONTINUOUS
 62
     7
 10
-403.90000000000009
 20
483.39999999999509
 30
0.0
 11
-396.10000000000019
 21
481.64024390224398
 31
0.0
  0
LINE
  5
376
  8
DATA
  6
CONTINUOUS
 62
     7
 10
-403.90000000000009
 20
482.59999999999508
 30
0.0
 11
-396.10000000000019
 21
480.84024390224403
 31
0.0
  0
LINE
  5
377
  8
DATA
  6
CONTINUOUS
 62
     7
 10
-403.90000000000009
 20
480.59999999999508
 30
0.0
 11
-396.10000000000019
 21
478.84024390224403
 31
0.0
  0
LINE
  5
378
  8
DATA
  6
CONTINUOUS
 62
     7
 10
-403.90000000000009
 20
479.79999999999518
 30
0.0
 11
-396.10000000000019
 21
478.04024390224401
 31
0.0
  0
LINE
  5
379
  8
DATA
  6
CONTINUOUS
 62
     7
 10
-403.90000000000009
 20
477.79999999999512
 30
0.0
 11
-396.10000000000019
 21
476.04024390224401
 31
0.0
  0
LINE
  5
37A
  8
DATA
  6
CONTINUOUS
 62
     7
 10
-403.90000000000009
 20
476.99999999999511
 30
0.0
 11
-396.10000000000019
 21
475.24024390224412
 31
0.0
  0
LINE
  5
37B
  8
DATA
  6
CONTINUOUS
 62
     7
 10
-403.90000000000009
 20
474.99999999999523
 30
0.0
 11
-396.10000000000019
 21
473.24024390224412
 31
0.0
  0
LINE
  5
37C
  8
DATA
  6
CONTINUOUS
 62
     7
 10
-403.90000000000009
 20
474.19999999999499
 30
0.0
 11
-396.10000000000019
 21
472.44024390224399
 31
0.0
  0
LINE
  5
37D
  8
DATA
  6
CONTINUOUS
 62
     7
 10
-403.90000000000009
 20
472.19999999999499
 30
0.0
 11
-396.10000000000019
 21
470.44024390224399
 31
0.0
  0
LINE
  5
37E
  8
DATA
  6
CONTINUOUS
 62
     7
 10
-403.90000000000009
 20
471.39999999999509
 30
0.0
 11
-396.10000000000019
 21
469.64024390224398
 31
0.0
  0
LINE
  5
37F
  8
DATA
  6
CONTINUOUS
 62
     7
 10
-403.90000000000009
 20
469.39999999999509
 30
0.0
 11
-396.10000000000019
 21
467.64024390224409
 31
0.0
  0
LINE
  5
380
  8
DATA
  6
CONTINUOUS
 62
     7
 10
-403.90000000000009
 20
468.59999999999508
 30
0.0
 11
-396.10000000000019
 21
466.84024390224403
 31
0.0
  0
LINE
  5
381
  8
DATA
  6
CONTINUOUS
 62
     7
 10
-403.90000000000009
 20
466.59999999999519
 30
0.0
 11
-396.10000000000019
 21
464.8402439022442
 31
0.0
  0
LINE
  5
382
  8
DATA
  6
CONTINUOUS
 62
     7
 10
-403.90000000000009
 20
465.79999999999512
 30
0.0
 11
-396.10000000000019
 21
464.04024390224401
 31
0.0
  0
LINE
  5
383
  8
DATA
  6
CONTINUOUS
 62
     7
 10
-403.90000000000009
 20
463.79999999999512
 30
0.0
 11
-396.10000000000019
 21
462.04024390224401
 31
0.0
  0
LINE
  5
384
  8
DATA
  6
CONTINUOUS
 62
     7
 10
-403.90000000000009
 20
462.99999999999511
 30
0.0
 11
-396.10000000000019
 21
461.24024390224412
 31
0.0
  0
LINE
  5
385
  8
DATA
  6
CONTINUOUS
 62
     7
 10
-403.90000000000009
 20
460.99999999999511
 30
0.0
 11
-396.10000000000019
 21
459.24024390224417
 31
0.0
  0
LINE
  5
386
  8
DATA
  6
CONTINUOUS
 62
     7
 10
-403.90000000000009
 20
460.19999999999521
 30
0.0
 11
-396.10000000000019
 21
458.44024390224399
 31
0.0
  0
LINE
  5
387
  8
DATA
  6
CONTINUOUS
 62
     7
 10
-403.90000000000009
 20
458.1999999999951
 30
0.0
 11
-396.10000000000019
 21
456.44024390224399
 31
0.0
  0
LINE
  5
388
  8
DATA
  6
CONTINUOUS
 62
     7
 10
-403.90000000000009
 20
457.39999999999509
 30
0.0
 11
-396.10000000000019
 21
455.64024390224409
 31
0.0
  0
LINE
  5
389
  8
DATA
  6
CONTINUOUS
 62
     7
 10
-403.90000000000009
 20
455.3999999999952
 30
0.0
 11
-396.10000000000019
 21
453.64024390224421
 31
0.0
  0
LINE
  5
38A
  8
DATA
  6
CONTINUOUS
 62
     7
 10
-403.90000000000009
 20
454.59999999999508
 30
0.0
 11
-396.10000000000019
 21
452.84024390224403
 31
0.0
  0
LINE
  5
38B
  8
DATA
  6
CONTINUOUS
 62
     7
 10
-403.90000000000009
 20
452.59999999999519
 30
0.0
 11
-396.10000000000019
 21
450.84024390224408
 31
0.0
  0
LINE
  5
38C
  8
DATA
  6
CONTINUOUS
 62
     7
 10
-403.90000000000009
 20
451.79999999999512
 30
0.0
 11
-396.10000000000019
 21
450.0402439022439
 31
0.0
  0
LINE
  5
38D
  8
DATA
  6
CONTINUOUS
 62
     7
 10
-403.90000000000009
 20
449.79999999999518
 30
0.0
 11
-396.10000000000019
 21
448.04024390224401
 31
0.0
  0
LINE
  5
38E
  8
DATA
  6
CONTINUOUS
 62
     7
 10
-403.90000000000009
 20
448.99999999999511
 30
0.0
 11
-396.10000000000019
 21
447.24024390224417
 31
0.0
  0
LINE
  5
38F
  8
DATA
  6
CONTINUOUS
 62
     7
 10
-403.90000000000009
 20
446.99999999999511
 30
0.0
 11
-396.10000000000019
 21
445.24024390224412
 31
0.0
  0
LINE
  5
390
  8
DATA
  6
CONTINUOUS
 62
     7
 10
-403.90000000000009
 20
446.19999999999521
 30
0.0
 11
-396.10000000000019
 21
444.44024390224399
 31
0.0
  0
LINE
  5
391
  8
DATA
  6
CONTINUOUS
 62
     7
 10
-403.90000000000009
 20
444.19999999999521
 30
0.0
 11
-396.10000000000019
 21
442.44024390224399
 31
0.0
  0
LINE
  5
392
  8
DATA
  6
CONTINUOUS
 62
     7
 10
-403.90000000000009
 20
443.3999999999952
 30
0.0
 11
-396.10000000000019
 21
441.64024390224421
 31
0.0
  0
LINE
  5
393
  8
DATA
  6
CONTINUOUS
 62
     7
 10
-403.90000000000009
 20
441.39999999999509
 30
0.0
 11
-396.10000000000019
 21
439.64024390224421
 31
0.0
  0
LINE
  5
394
  8
DATA
  6
CONTINUOUS
 62
     7
 10
-403.90000000000009
 20
440.59999999999519
 30
0.0
 11
-396.10000000000019
 21
438.84024390224408
 31
0.0
  0
LINE
  5
395
  8
DATA
  6
CONTINUOUS
 62
     7
 10
-403.90000000000009
 20
438.59999999999519
 30
0.0
 11
-396.10000000000019
 21
436.8402439022442
 31
0.0
  0
LINE
  5
396
  8
DATA
  6
CONTINUOUS
 62
     7
 10
-403.90000000000009
 20
437.79999999999518
 30
0.0
 11
-396.10000000000019
 21
436.04024390224401
 31
0.0
  0
LINE
  5
397
  8
DATA
  6
CONTINUOUS
 62
     7
 10
-403.90000000000009
 20
435.79999999999512
 30
0.0
 11
-396.10000000000019
 21
434.0402439022439
 31
0.0
  0
LINE
  5
398
  8
DATA
  6
CONTINUOUS
 62
     7
 10
-403.90000000000009
 20
434.99999999999511
 30
0.0
 11
-396.10000000000019
 21
433.24024390224412
 31
0.0
  0
LINE
  5
399
  8
DATA
  6
CONTINUOUS
 62
     7
 10
-403.90000000000009
 20
432.99999999999523
 30
0.0
 11
-396.10000000000019
 21
431.24024390224417
 31
0.0
  0
LINE
  5
39A
  8
DATA
  6
CONTINUOUS
 62
     7
 10
-403.90000000000009
 20
432.19999999999521
 30
0.0
 11
-396.10000000000019
 21
430.44024390224399
 31
0.0
  0
LINE
  5
39B
  8
DATA
  6
CONTINUOUS
 62
     7
 10
-403.90000000000009
 20
430.19999999999521
 30
0.0
 11
-396.10000000000019
 21
428.44024390224399
 31
0.0
  0
LINE
  5
39C
  8
DATA
  6
CONTINUOUS
 62
     7
 10
-403.90000000000009
 20
429.3999999999952
 30
0.0
 11
-396.10000000000019
 21
427.64024390224421
 31
0.0
  0
LINE
  5
39D
  8
DATA
  6
CONTINUOUS
 62
     7
 10
-403.90000000000009
 20
427.3999999999952
 30
0.0
 11
-397.69459459526519
 21
425.99999999999511
 31
0.0
  0
LINE
  5
39E
  8
DATA
  6
CONTINUOUS
 62
     7
 10
-403.90000000000009
 20
426.59999999999508
 30
0.0
 11
-401.24054054082819
 21
425.99999999999511
 31
0.0
  0
LINE
  5
39F
  8
DATA
  6
CONTINUOUS
 62
     7
 10
358.99987666645973
 20
-158.74248898938191
 30
0.0
 11
340.99987666645973
 21
-157.48803729174881
 31
0.0
  0
LINE
  5
3A0
  8
DATA
  6
CONTINUOUS
 62
     7
 10
358.99987666645973
 20
-143.22868105978009
 30
0.0
 11
340.99987666645973
 21
-144.48803729174881
 31
0.0
  0
LINE
  5
3A1
  8
DATA
  6
CONTINUOUS
 62
     7
 10
340.99987666645973
 20
-157.48803729174881
 30
0.0
 11
340.99987666645973
 21
-144.48803729174881
 31
0.0
  0
LINE
  5
3A2
  8
DATA
  6
CONTINUOUS
 62
     7
 10
340.99987666645973
 20
-154.88803729174879
 30
0.0
 11
275.99987666645973
 21
-154.88803729174879
 31
0.0
  0
LINE
  5
3A3
  8
DATA
  6
CONTINUOUS
 62
     7
 10
275.99987666645973
 20
-147.0880372917488
 30
0.0
 11
340.99987666645973
 21
-147.0880372917488
 31
0.0
  0
LINE
  5
3A4
  8
DATA
  6
CONTINUOUS
 62
     7
 10
275.99987666645973
 20
-155.63803729174879
 30
0.0
 11
275.99987666645973
 21
-146.3380372917488
 31
0.0
  0
LINE
  5
3A5
  8
DATA
  6
CONTINUOUS
 62
     7
 10
245.9998766664599
 20
-153.88803729174879
 30
0.0
 11
245.9998766664599
 21
-148.0880372917488
 31
0.0
  0
LINE
  5
3A6
  8
DATA
  6
CONTINUOUS
 62
     7
 10
275.99987666645973
 20
-155.63803729174879
 30
0.0
 11
262.3054297787744
 21
-155.63803729174879
 31
0.0
  0
ARC
  5
3A7
  8
DATA
  6
CONTINUOUS
 62
     7
 10
276.36350723276678
 20
45.976800570699467
 30
0.0
 40
202.1581150361022
 50
261.3616315608445
 51
265.57378918524461
  0
ARC
  5
3A8
  8
DATA
  6
CONTINUOUS
 62
     7
 10
262.3054297787744
 20
-135.6380372917433
 30
0.0
 40
20.000000000005549
 50
265.57378918524591
 51
270.0
  0
LINE
  5
3A9
  8
DATA
  6
CONTINUOUS
 62
     7
 10
275.99987666645973
 20
-146.3380372917488
 30
0.0
 11
262.3054297787744
 21
-146.3380372917488
 31
0.0
  0
ARC
  5
3AA
  8
DATA
  6
CONTINUOUS
 62
     7
 10
276.36350723276678
 20
-347.9528751541983
 30
0.0
 40
202.15811503610331
 50
94.426210814755365
 51
98.638368439155485
  0
ARC
  5
3AB
  8
DATA
  6
CONTINUOUS
 62
     7
 10
262.3054297787744
 20
-166.33803729175429
 30
0.0
 40
20.000000000005549
 50
90.0
 51
94.426210814754128
  0
LINE
  5
3AC
  8
DATA
  6
CONTINUOUS
 62
     7
 10
245.9998766664599
 20
-153.88803729174879
 30
0.0
 11
-88.223225404516356
 21
-153.88803729174879
 31
0.0
  0
LINE
  5
3AD
  8
DATA
  6
CONTINUOUS
 62
     7
 10
245.9998766664599
 20
-148.0880372917488
 30
0.0
 11
-88.223225404516356
 21
-148.0880372917488
 31
0.0
  0
LINE
  5
3AE
  8
DATA
  6
CONTINUOUS
 62
     7
 10
-126.9999995745398
 20
-157.9855850245811
 30
0.0
 11
-126.9999995745398
 21
-143.98558502458101
 31
0.0
  0
ARC
  5
3AF
  8
DATA
  6
CONTINUOUS
 62
     7
 10
-98.529075965794007
 20
-313.67905286386872
 30
0.0
 40
158.27523311926689
 50
94.924386425545507
 51
100.36290810698441
  0
LINE
  5
3B0
  8
DATA
  6
CONTINUOUS
 62
     7
 10
-99.738346496005207
 20
-154.55323983260891
 30
0.0
 11
-112.115577605422
 21
-155.9880372917863
 31
0.0
  0
ARC
  5
3B1
  8
DATA
  6
CONTINUOUS
 62
     7
 10
-98.529075965794007
 20
11.70788281470584
 30
0.0
 40
158.27523311926629
 50
259.63709189301551
 51
265.07561357445439
  0
LINE
  5
3B2
  8
DATA
  6
CONTINUOUS
 62
     7
 10
-99.696037698643195
 20
-147.42283475088871
 30
0.0
 11
-112.115577605422
 21
-145.98313275737561
 31
0.0
  0
ARC
  5
3B3
  8
DATA
  6
CONTINUOUS
 62
     7
 10
-88.223225404516214
 20
-253.88803729174859
 30
0.0
 40
99.999999999999716
 50
90.000000000000057
 51
96.612346736455876
  0
ARC
  5
3B4
  8
DATA
  6
CONTINUOUS
 62
     7
 10
-88.180916607154202
 20
-48.088037291748947
 30
0.0
 40
99.999999999999915
 50
263.38765326354411
 51
269.99999999999989
  0
LINE
  5
3B5
  8
DATA
  6
CONTINUOUS
 62
     7
 10
-121.9999995745398
 20
-156.4537668430128
 30
0.0
 11
-121.9999995745398
 21
-152.08558502458101
 31
0.0
  0
LINE
  5
3B6
  8
DATA
  6
CONTINUOUS
 62
     7
 10
-121.9999995745398
 20
-149.88558502458099
 30
0.0
 11
-121.9999995745398
 21
-145.51740320614931
 31
0.0
  0
LINE
  5
3B7
  8
DATA
  6
CONTINUOUS
 62
     7
 10
-121.9999995745398
 20
-149.88558502458099
 30
0.0
 11
-121.1999995745397
 21
-149.88558502458099
 31
0.0
  0
LINE
  5
3B8
  8
DATA
  6
CONTINUOUS
 62
     7
 10
-120.39999957453981
 20
-149.88558502458099
 30
0.0
 11
-119.59999957453969
 21
-149.88558502458099
 31
0.0
  0
LINE
  5
3B9
  8
DATA
  6
CONTINUOUS
 62
     7
 10
-118.7999995745398
 20
-149.88558502458099
 30
0.0
 11
-117.9999995745397
 21
-149.88558502458099
 31
0.0
  0
LINE
  5
3BA
  8
DATA
  6
CONTINUOUS
 62
     7
 10
-117.9999995745398
 20
-152.08558502458101
 30
0.0
 11
-118.7999995745398
 21
-152.08558502458101
 31
0.0
  0
LINE
  5
3BB
  8
DATA
  6
CONTINUOUS
 62
     7
 10
-119.59999957453969
 20
-152.08558502458101
 30
0.0
 11
-120.39999957453981
 21
-152.08558502458101
 31
0.0
  0
LINE
  5
3BC
  8
DATA
  6
CONTINUOUS
 62
     7
 10
-121.1999995745397
 20
-152.08558502458101
 30
0.0
 11
-121.9999995745398
 21
-152.08558502458101
 31
0.0
  0
LINE
  5
3BD
  8
DATA
  6
CONTINUOUS
 62
     7
 10
-121.1999995745397
 20
-156.33589584229711
 30
0.0
 11
-121.1999995745397
 21
-152.08558502458101
 31
0.0
  0
LINE
  5
3BE
  8
DATA
  6
CONTINUOUS
 62
     7
 10
-121.1999995745397
 20
-149.88558502458099
 30
0.0
 11
-121.1999995745397
 21
-145.63527420686501
 31
0.0
  0
LINE
  5
3BF
  8
DATA
  6
CONTINUOUS
 62
     7
 10
-120.39999957453981
 20
-156.2221961734555
 30
0.0
 11
-120.39999957453981
 21
-152.08558502458101
 31
0.0
  0
LINE
  5
3C0
  8
DATA
  6
CONTINUOUS
 62
     7
 10
-120.39999957453981
 20
-149.88558502458099
 30
0.0
 11
-120.39999957453981
 21
-145.7489738757065
 31
0.0
  0
LINE
  5
3C1
  8
DATA
  6
CONTINUOUS
 62
     7
 10
-119.59999957453969
 20
-156.11265876611191
 30
0.0
 11
-119.59999957453969
 21
-152.08558502458101
 31
0.0
  0
LINE
  5
3C2
  8
DATA
  6
CONTINUOUS
 62
     7
 10
-119.59999957453969
 20
-149.88558502458099
 30
0.0
 11
-119.59999957453969
 21
-145.85851128305001
 31
0.0
  0
LINE
  5
3C3
  8
DATA
  6
CONTINUOUS
 62
     7
 10
-118.7999995745398
 20
-156.00727490678901
 30
0.0
 11
-118.7999995745398
 21
-152.08558502458101
 31
0.0
  0
LINE
  5
3C4
  8
DATA
  6
CONTINUOUS
 62
     7
 10
-118.7999995745398
 20
-149.88558502458099
 30
0.0
 11
-118.7999995745398
 21
-145.96389514237299
 31
0.0
  0
LINE
  5
3C5
  8
DATA
  6
CONTINUOUS
 62
     7
 10
-117.9999995745398
 20
-155.90603623535699
 30
0.0
 11
-117.9999995745398
 21
-152.08558502458101
 31
0.0
  0
LINE
  5
3C6
  8
DATA
  6
CONTINUOUS
 62
     7
 10
-117.9999995745398
 20
-149.88558502458099
 30
0.0
 11
-117.9999995745398
 21
-146.06513381380509
 31
0.0
  0
ARC
  5
3C7
  8
DATA
  6
CONTINUOUS
 62
     7
 10
-98.529075965794007
 20
-312.97905286386867
 30
0.0
 40
158.275233119267
 50
97.066392754499716
 51
97.358303496229354
  0
ARC
  5
3C8
  8
DATA
  6
CONTINUOUS
 62
     7
 10
-98.529075965794007
 20
-312.97905286386867
 30
0.0
 40
158.27523311926711
 50
97.650406423232724
 51
97.942709523082698
  0
ARC
  5
3C9
  8
DATA
  6
CONTINUOUS
 62
     7
 10
-98.529075965794007
 20
-312.97905286386867
 30
0.0
 40
158.275233119267
 50
98.235220831621575
 51
98.52794843508579
  0
ARC
  5
3CA
  8
DATA
  6
CONTINUOUS
 62
     7
 10
-98.529075965794007
 20
11.00788281470585
 30
0.0
 40
158.27523311926629
 50
261.47205156491418
 51
261.76477916837842
  0
ARC
  5
3CB
  8
DATA
  6
CONTINUOUS
 62
     7
 10
-98.529075965794007
 20
11.00788281470585
 30
0.0
 40
158.27523311926629
 50
262.05729047691739
 51
262.34959357676729
  0
ARC
  5
3CC
  8
DATA
  6
CONTINUOUS
 62
     7
 10
-98.529075965794007
 20
11.00788281470585
 30
0.0
 40
158.27523311926629
 50
262.6416965037709
 51
262.93360724550041
  0
LINE
  5
3CD
  8
DATA
  6
CONTINUOUS
 62
     7
 10
-88.223225404516356
 20
-153.88803729174879
 30
0.0
 11
-88.223225404516356
 21
-148.08802834157669
 31
0.0
  0
LINE
  5
3CE
  8
DATA
  6
CONTINUOUS
 62
     7
 10
340.99987666645973
 20
-154.88803729174879
 30
0.0
 11
339.24012056870868
 21
-147.0880372917488
 31
0.0
  0
LINE
  5
3CF
  8
DATA
  6
CONTINUOUS
 62
     7
 10
338.99987666645973
 20
-154.88803729174879
 30
0.0
 11
337.24012056870868
 21
-147.0880372917488
 31
0.0
  0
LINE
  5
3D0
  8
DATA
  6
CONTINUOUS
 62
     7
 10
338.19987666645972
 20
-154.88803729174879
 30
0.0
 11
336.44012056870861
 21
-147.0880372917488
 31
0.0
  0
LINE
  5
3D1
  8
DATA
  6
CONTINUOUS
 62
     7
 10
336.19987666645972
 20
-154.88803729174879
 30
0.0
 11
334.44012056870861
 21
-147.0880372917488
 31
0.0
  0
LINE
  5
3D2
  8
DATA
  6
CONTINUOUS
 62
     7
 10
335.3998766664597
 20
-154.88803729174879
 30
0.0
 11
333.6401205687086
 21
-147.0880372917488
 31
0.0
  0
LINE
  5
3D3
  8
DATA
  6
CONTINUOUS
 62
     7
 10
333.3998766664597
 20
-154.88803729174879
 30
0.0
 11
331.6401205687086
 21
-147.0880372917488
 31
0.0
  0
LINE
  5
3D4
  8
DATA
  6
CONTINUOUS
 62
     7
 10
332.59987666645958
 20
-154.88803729174879
 30
0.0
 11
330.84012056870858
 21
-147.0880372917488
 31
0.0
  0
LINE
  5
3D5
  8
DATA
  6
CONTINUOUS
 62
     7
 10
330.59987666645969
 20
-154.88803729174879
 30
0.0
 11
328.8401205687087
 21
-147.0880372917488
 31
0.0
  0
LINE
  5
3D6
  8
DATA
  6
CONTINUOUS
 62
     7
 10
329.79987666645968
 20
-154.88803729174879
 30
0.0
 11
328.04012056870857
 21
-147.0880372917488
 31
0.0
  0
LINE
  5
3D7
  8
DATA
  6
CONTINUOUS
 62
     7
 10
327.79987666645968
 20
-154.88803729174879
 30
0.0
 11
326.04012056870857
 21
-147.0880372917488
 31
0.0
  0
LINE
  5
3D8
  8
DATA
  6
CONTINUOUS
 62
     7
 10
326.99987666645973
 20
-154.88803729174879
 30
0.0
 11
325.24012056870868
 21
-147.0880372917488
 31
0.0
  0
LINE
  5
3D9
  8
DATA
  6
CONTINUOUS
 62
     7
 10
324.99987666645973
 20
-154.88803729174879
 30
0.0
 11
323.24012056870868
 21
-147.0880372917488
 31
0.0
  0
LINE
  5
3DA
  8
DATA
  6
CONTINUOUS
 62
     7
 10
324.19987666645972
 20
-154.88803729174879
 30
0.0
 11
322.44012056870861
 21
-147.0880372917488
 31
0.0
  0
LINE
  5
3DB
  8
DATA
  6
CONTINUOUS
 62
     7
 10
322.19987666645972
 20
-154.88803729174879
 30
0.0
 11
320.44012056870861
 21
-147.0880372917488
 31
0.0
  0
LINE
  5
3DC
  8
DATA
  6
CONTINUOUS
 62
     7
 10
321.3998766664597
 20
-154.88803729174879
 30
0.0
 11
319.6401205687086
 21
-147.0880372917488
 31
0.0
  0
LINE
  5
3DD
  8
DATA
  6
CONTINUOUS
 62
     7
 10
319.3998766664597
 20
-154.88803729174879
 30
0.0
 11
317.6401205687086
 21
-147.0880372917488
 31
0.0
  0
LINE
  5
3DE
  8
DATA
  6
CONTINUOUS
 62
     7
 10
318.59987666645958
 20
-154.88803729174879
 30
0.0
 11
316.84012056870858
 21
-147.0880372917488
 31
0.0
  0
LINE
  5
3DF
  8
DATA
  6
CONTINUOUS
 62
     7
 10
316.59987666645981
 20
-154.88803729174879
 30
0.0
 11
314.8401205687087
 21
-147.0880372917488
 31
0.0
  0
LINE
  5
3E0
  8
DATA
  6
CONTINUOUS
 62
     7
 10
315.79987666645968
 20
-154.88803729174879
 30
0.0
 11
314.04012056870857
 21
-147.0880372917488
 31
0.0
  0
LINE
  5
3E1
  8
DATA
  6
CONTINUOUS
 62
     7
 10
313.79987666645968
 20
-154.88803729174879
 30
0.0
 11
312.04012056870857
 21
-147.0880372917488
 31
0.0
  0
LINE
  5
3E2
  8
DATA
  6
CONTINUOUS
 62
     7
 10
312.99987666645973
 20
-154.88803729174879
 30
0.0
 11
311.24012056870868
 21
-147.0880372917488
 31
0.0
  0
LINE
  5
3E3
  8
DATA
  6
CONTINUOUS
 62
     7
 10
310.99987666645973
 20
-154.88803729174879
 30
0.0
 11
309.24012056870868
 21
-147.0880372917488
 31
0.0
  0
LINE
  5
3E4
  8
DATA
  6
CONTINUOUS
 62
     7
 10
310.19987666645972
 20
-154.88803729174879
 30
0.0
 11
308.44012056870861
 21
-147.0880372917488
 31
0.0
  0
LINE
  5
3E5
  8
DATA
  6
CONTINUOUS
 62
     7
 10
308.19987666645972
 20
-154.88803729174879
 30
0.0
 11
306.44012056870861
 21
-147.0880372917488
 31
0.0
  0
LINE
  5
3E6
  8
DATA
  6
CONTINUOUS
 62
     7
 10
307.3998766664597
 20
-154.88803729174879
 30
0.0
 11
305.6401205687086
 21
-147.0880372917488
 31
0.0
  0
LINE
  5
3E7
  8
DATA
  6
CONTINUOUS
 62
     7
 10
305.3998766664597
 20
-154.88803729174879
 30
0.0
 11
303.6401205687086
 21
-147.0880372917488
 31
0.0
  0
LINE
  5
3E8
  8
DATA
  6
CONTINUOUS
 62
     7
 10
304.59987666645958
 20
-154.88803729174879
 30
0.0
 11
302.84012056870858
 21
-147.0880372917488
 31
0.0
  0
LINE
  5
3E9
  8
DATA
  6
CONTINUOUS
 62
     7
 10
302.59987666645969
 20
-154.88803729174879
 30
0.0
 11
300.8401205687087
 21
-147.0880372917488
 31
0.0
  0
LINE
  5
3EA
  8
DATA
  6
CONTINUOUS
 62
     7
 10
301.79987666645968
 20
-154.88803729174879
 30
0.0
 11
300.04012056870869
 21
-147.0880372917488
 31
0.0
  0
LINE
  5
3EB
  8
DATA
  6
CONTINUOUS
 62
     7
 10
299.79987666645968
 20
-154.88803729174879
 30
0.0
 11
298.04012056870869
 21
-147.0880372917488
 31
0.0
  0
LINE
  5
3EC
  8
DATA
  6
CONTINUOUS
 62
     7
 10
298.99987666645978
 20
-154.88803729174879
 30
0.0
 11
297.24012056870868
 21
-147.0880372917488
 31
0.0
  0
LINE
  5
3ED
  8
DATA
  6
CONTINUOUS
 62
     7
 10
296.99987666645973
 20
-154.88803729174879
 30
0.0
 11
295.24012056870868
 21
-147.0880372917488
 31
0.0
  0
LINE
  5
3EE
  8
DATA
  6
CONTINUOUS
 62
     7
 10
296.19987666645972
 20
-154.88803729174879
 30
0.0
 11
294.44012056870861
 21
-147.0880372917488
 31
0.0
  0
LINE
  5
3EF
  8
DATA
  6
CONTINUOUS
 62
     7
 10
294.19987666645972
 20
-154.88803729174879
 30
0.0
 11
292.44012056870861
 21
-147.0880372917488
 31
0.0
  0
LINE
  5
3F0
  8
DATA
  6
CONTINUOUS
 62
     7
 10
293.39987666645959
 20
-154.88803729174879
 30
0.0
 11
291.64012056870848
 21
-147.0880372917488
 31
0.0
  0
LINE
  5
3F1
  8
DATA
  6
CONTINUOUS
 62
     7
 10
291.3998766664597
 20
-154.88803729174879
 30
0.0
 11
289.6401205687086
 21
-147.0880372917488
 31
0.0
  0
LINE
  5
3F2
  8
DATA
  6
CONTINUOUS
 62
     7
 10
290.59987666645958
 20
-154.88803729174879
 30
0.0
 11
288.84012056870858
 21
-147.0880372917488
 31
0.0
  0
LINE
  5
3F3
  8
DATA
  6
CONTINUOUS
 62
     7
 10
288.59987666645969
 20
-154.88803729174879
 30
0.0
 11
286.84012056870858
 21
-147.0880372917488
 31
0.0
  0
LINE
  5
3F4
  8
DATA
  6
CONTINUOUS
 62
     7
 10
287.79987666645968
 20
-154.88803729174879
 30
0.0
 11
286.04012056870857
 21
-147.0880372917488
 31
0.0
  0
LINE
  5
3F5
  8
DATA
  6
CONTINUOUS
 62
     7
 10
285.79987666645968
 20
-154.88803729174879
 30
0.0
 11
284.04012056870857
 21
-147.0880372917488
 31
0.0
  0
LINE
  5
3F6
  8
DATA
  6
CONTINUOUS
 62
     7
 10
284.99987666645961
 20
-154.88803729174879
 30
0.0
 11
283.24012056870851
 21
-147.0880372917488
 31
0.0
  0
LINE
  5
3F7
  8
DATA
  6
CONTINUOUS
 62
     7
 10
282.99987666645961
 20
-154.88803729174879
 30
0.0
 11
281.24012056870862
 21
-147.0880372917488
 31
0.0
  0
LINE
  5
3F8
  8
DATA
  6
CONTINUOUS
 62
     7
 10
282.19987666645972
 20
-154.88803729174879
 30
0.0
 11
280.44012056870861
 21
-147.0880372917488
 31
0.0
  0
LINE
  5
3F9
  8
DATA
  6
CONTINUOUS
 62
     7
 10
280.19987666645972
 20
-154.88803729174879
 30
0.0
 11
278.44012056870861
 21
-147.0880372917488
 31
0.0
  0
LINE
  5
3FA
  8
DATA
  6
CONTINUOUS
 62
     7
 10
279.3998766664597
 20
-154.88803729174879
 30
0.0
 11
277.6401205687086
 21
-147.0880372917488
 31
0.0
  0
LINE
  5
3FB
  8
DATA
  6
CONTINUOUS
 62
     7
 10
277.3998766664597
 20
-154.88803729174879
 30
0.0
 11
275.99987666645973
 21
-148.68263188701371
 31
0.0
  0
LINE
  5
3FC
  8
DATA
  6
CONTINUOUS
 62
     7
 10
276.59987666645958
 20
-154.88803729174879
 30
0.0
 11
275.99987666645973
 21
-152.2285778325768
 31
0.0
  0
CIRCLE
  5
3FD
  8
DATA
  6
CONTINUOUS
 62
     7
 10
-400.0000000000378
 20
-150.98803281663621
 30
0.0
 40
7.0500000000000682
  0
CIRCLE
  5
3FE
  8
DATA
  6
CONTINUOUS
 62
     7
 10
-400.0000000000378
 20
-150.98803281663621
 30
0.0
 40
7.75
  0
LINE
  5
3FF
  8
DATA
  6
CONTINUOUS
 62
     7
 10
-400.62750000003768
 20
-157.4893457475734
 30
0.0
 11
-400.62750000003768
 21
-144.48671988569899
 31
0.0
  0
LINE
  5
400
  8
DATA
  6
CONTINUOUS
 62
     7
 10
-399.2475000000378
 20
-157.47606563298129
 30
0.0
 11
-399.2475000000378
 21
-144.5000000002911
 31
0.0
  0
LINE
  5
401
  8
DATA
  6
CONTINUOUS
 62
     7
 10
-402.2475000000378
 20
-157.12069698695981
 30
0.0
 11
-402.2475000000378
 21
-144.85536864631251
 31
0.0
  0
LINE
  5
402
  8
DATA
  6
CONTINUOUS
 62
     7
 10
-403.62750000003768
 20
-156.41961360181941
 30
0.0
 11
-403.62750000003768
 21
-145.55645203145289
 31
0.0
  0
LINE
  5
403
  8
DATA
  6
CONTINUOUS
 62
     7
 10
-397.62750000003791
 20
-157.07343089942191
 30
0.0
 11
-397.62750000003791
 21
-144.9026347338505
 31
0.0
  0
LINE
  5
404
  8
DATA
  6
CONTINUOUS
 62
     7
 10
-396.24750000003769
 20
-156.334019145273
 30
0.0
 11
-396.24750000003769
 21
-145.64204648799941
 31
0.0
  0
LINE
  5
405
  8
DATA
  6
CONTINUOUS
 62
     7
 10
-405.24750000003769
 20
-154.8770648075012
 30
0.0
 11
-405.24750000003769
 21
-147.09900082577121
 31
0.0
  0
LINE
  5
406
  8
DATA
  6
CONTINUOUS
 62
     7
 10
-394.62750000003768
 20
-154.7024735317334
 30
0.0
 11
-394.62750000003768
 21
-147.27359210153909
 31
0.0
  0
CIRCLE
  5
407
  8
DATA
  6
CONTINUOUS
 62
     7
 10
-400.0000000000378
 20
-150.98803281663621
 30
0.0
 40
6.5315255550270859
  0
LINE
  5
408
  8
DATA
  6
CONTINUOUS
 62
     7
 10
-405.24750000003769
 20
-147.86306778179761
 30
0.0
 11
-403.6275000000378
 21
-146.24306778179769
 31
0.0
  0
LINE
  5
409
  8
DATA
  6
CONTINUOUS
 62
     7
 10
-402.2475000000378
 20
-144.8630677817977
 30
0.0
 11
-402.2353685170491
 21
-144.8509362988091
 31
0.0
  0
LINE
  5
40A
  8
DATA
  6
CONTINUOUS
 62
     7
 10
-406.43101159625161
 20
-149.8465793899324
 30
0.0
 11
-406.41653632789399
 21
-149.83210412157499
 31
0.0
  0
LINE
  5
40B
  8
DATA
  6
CONTINUOUS
 62
     7
 10
-405.24750000003769
 20
-148.66306779371851
 30
0.0
 11
-403.6275000000378
 21
-147.04306779371859
 31
0.0
  0
LINE
  5
40C
  8
DATA
  6
CONTINUOUS
 62
     7
 10
-402.2475000000378
 20
-145.6630677937186
 30
0.0
 11
-401.14145342674141
 21
-144.55702122042231
 31
0.0
  0
LINE
  5
40D
  8
DATA
  6
CONTINUOUS
 62
     7
 10
-405.24750000003769
 20
-149.4630678056395
 30
0.0
 11
-403.62750000003768
 21
-147.84306780563949
 31
0.0
  0
LINE
  5
40E
  8
DATA
  6
CONTINUOUS
 62
     7
 10
-402.2475000000378
 20
-146.4630678056395
 30
0.0
 11
-400.62750000003768
 21
-144.84306780563941
 31
0.0
  0
LINE
  5
40F
  8
DATA
  6
CONTINUOUS
 62
     7
 10
-405.24750000003769
 20
-150.2630678175604
 30
0.0
 11
-403.6275000000378
 21
-148.64306781756039
 31
0.0
  0
LINE
  5
410
  8
DATA
  6
CONTINUOUS
 62
     7
 10
-402.2475000000378
 20
-147.2630678175604
 30
0.0
 11
-400.62750000003768
 21
-145.64306781756039
 31
0.0
  0
LINE
  5
411
  8
DATA
  6
CONTINUOUS
 62
     7
 10
-400.01653631597321
 20
-145.03210413349581
 30
0.0
 11
-400.00000000003769
 21
-145.0155678175604
 31
0.0
  0
LINE
  5
412
  8
DATA
  6
CONTINUOUS
 62
     7
 10
-406.41653631001282
 20
-152.23210413945631
 30
0.0
 11
-406.4126948973439
 21
-152.22826272678751
 31
0.0
  0
LINE
  5
413
  8
DATA
  6
CONTINUOUS
 62
     7
 10
-405.24750000003769
 20
-151.06306782948141
 30
0.0
 11
-403.6275000000378
 21
-149.44306782948141
 31
0.0
  0
LINE
  5
414
  8
DATA
  6
CONTINUOUS
 62
     7
 10
-402.2475000000378
 20
-148.0630678294813
 30
0.0
 11
-400.62750000003768
 21
-146.44306782948141
 31
0.0
  0
LINE
  5
415
  8
DATA
  6
CONTINUOUS
 62
     7
 10
-399.2475000000378
 20
-145.06306782948141
 30
0.0
 11
-398.75977008988639
 21
-144.57533791933
 31
0.0
  0
LINE
  5
416
  8
DATA
  6
CONTINUOUS
 62
     7
 10
-405.24750000003769
 20
-151.8630678414022
 30
0.0
 11
-403.6275000000378
 21
-150.24306784140231
 31
0.0
  0
LINE
  5
417
  8
DATA
  6
CONTINUOUS
 62
     7
 10
-402.2475000000378
 20
-148.86306784140231
 30
0.0
 11
-400.62750000003768
 21
-147.24306784140219
 31
0.0
  0
LINE
  5
418
  8
DATA
  6
CONTINUOUS
 62
     7
 10
-399.2475000000378
 20
-145.86306784140231
 30
0.0
 11
-398.11796497579252
 21
-144.73353281715691
 31
0.0
  0
LINE
  5
419
  8
DATA
  6
CONTINUOUS
 62
     7
 10
-405.24750000003769
 20
-152.66306785332321
 30
0.0
 11
-403.6275000000378
 21
-151.04306785332321
 31
0.0
  0
LINE
  5
41A
  8
DATA
  6
CONTINUOUS
 62
     7
 10
-402.2475000000378
 20
-149.66306785332321
 30
0.0
 11
-400.62750000003768
 21
-148.04306785332309
 31
0.0
  0
LINE
  5
41B
  8
DATA
  6
CONTINUOUS
 62
     7
 10
-399.2475000000378
 20
-146.66306785332321
 30
0.0
 11
-397.62750000003791
 21
-145.04306785332321
 31
0.0
  0
LINE
  5
41C
  8
DATA
  6
CONTINUOUS
 62
     7
 10
-405.24750000003769
 20
-153.46306786524411
 30
0.0
 11
-403.62750000003768
 21
-151.84306786524411
 31
0.0
  0
LINE
  5
41D
  8
DATA
  6
CONTINUOUS
 62
     7
 10
-402.2475000000378
 20
-150.46306786524411
 30
0.0
 11
-400.62750000003768
 21
-148.84306786524411
 31
0.0
  0
LINE
  5
41E
  8
DATA
  6
CONTINUOUS
 62
     7
 10
-399.2475000000378
 20
-147.46306786524411
 30
0.0
 11
-397.62750000003791
 21
-145.84306786524411
 31
0.0
  0
LINE
  5
41F
  8
DATA
  6
CONTINUOUS
 62
     7
 10
-405.24750000003769
 20
-154.26306787716501
 30
0.0
 11
-403.6275000000378
 21
-152.64306787716509
 31
0.0
  0
LINE
  5
420
  8
DATA
  6
CONTINUOUS
 62
     7
 10
-402.2475000000378
 20
-151.2630678771651
 30
0.0
 11
-400.62750000003768
 21
-149.64306787716501
 31
0.0
  0
LINE
  5
421
  8
DATA
  6
CONTINUOUS
 62
     7
 10
-399.2475000000378
 20
-148.2630678771651
 30
0.0
 11
-397.62750000003791
 21
-146.64306787716509
 31
0.0
  0
LINE
  5
422
  8
DATA
  6
CONTINUOUS
 62
     7
 10
-405.16736164081738
 20
-154.9829295298656
 30
0.0
 11
-403.6275000000378
 21
-153.443067889086
 31
0.0
  0
LINE
  5
423
  8
DATA
  6
CONTINUOUS
 62
     7
 10
-402.2475000000378
 20
-152.063067889086
 30
0.0
 11
-400.62750000003768
 21
-150.44306788908591
 31
0.0
  0
LINE
  5
424
  8
DATA
  6
CONTINUOUS
 62
     7
 10
-399.2475000000378
 20
-149.063067889086
 30
0.0
 11
-397.62750000003791
 21
-147.443067889086
 31
0.0
  0
LINE
  5
425
  8
DATA
  6
CONTINUOUS
 62
     7
 10
-396.24750000003792
 20
-146.063067889086
 30
0.0
 11
-396.00510328680838
 21
-145.8206711758566
 31
0.0
  0
LINE
  5
426
  8
DATA
  6
CONTINUOUS
 62
     7
 10
-404.80096219096163
 20
-155.41653009193081
 30
0.0
 11
-403.6275000000378
 21
-154.2430679010069
 31
0.0
  0
LINE
  5
427
  8
DATA
  6
CONTINUOUS
 62
     7
 10
-402.2475000000378
 20
-152.8630679010069
 30
0.0
 11
-400.62750000003768
 21
-151.2430679010069
 31
0.0
  0
LINE
  5
428
  8
DATA
  6
CONTINUOUS
 62
     7
 10
-399.2475000000378
 20
-149.8630679010069
 30
0.0
 11
-397.62750000003791
 21
-148.2430679010069
 31
0.0
  0
LINE
  5
429
  8
DATA
  6
CONTINUOUS
 62
     7
 10
-396.24750000003769
 20
-146.8630679010069
 30
0.0
 11
-395.5715027247432
 21
-146.18707062571241
 31
0.0
  0
LINE
  5
42A
  8
DATA
  6
CONTINUOUS
 62
     7
 10
-404.39976867406961
 20
-155.81533658695969
 30
0.0
 11
-403.6275000000378
 21
-155.0430679129278
 31
0.0
  0
LINE
  5
42B
  8
DATA
  6
CONTINUOUS
 62
     7
 10
-402.2475000000378
 20
-153.66306791292789
 30
0.0
 11
-400.62750000003768
 21
-152.0430679129278
 31
0.0
  0
LINE
  5
42C
  8
DATA
  6
CONTINUOUS
 62
     7
 10
-399.2475000000378
 20
-150.66306791292789
 30
0.0
 11
-397.62750000003791
 21
-149.04306791292791
 31
0.0
  0
LINE
  5
42D
  8
DATA
  6
CONTINUOUS
 62
     7
 10
-396.24750000003792
 20
-147.66306791292789
 30
0.0
 11
-395.17269622971429
 21
-146.5882641426044
 31
0.0
  0
LINE
  5
42E
  8
DATA
  6
CONTINUOUS
 62
     7
 10
-403.9637538743371
 20
-156.179321799148
 30
0.0
 11
-403.62750000003768
 21
-155.84306792484881
 31
0.0
  0
LINE
  5
42F
  8
DATA
  6
CONTINUOUS
 62
     7
 10
-402.2475000000378
 20
-154.46306792484879
 30
0.0
 11
-400.62750000003768
 21
-152.8430679248487
 31
0.0
  0
LINE
  5
430
  8
DATA
  6
CONTINUOUS
 62
     7
 10
-399.2475000000378
 20
-151.46306792484879
 30
0.0
 11
-397.62750000003791
 21
-149.84306792484881
 31
0.0
  0
LINE
  5
431
  8
DATA
  6
CONTINUOUS
 62
     7
 10
-396.24750000003792
 20
-148.46306792484879
 30
0.0
 11
-394.80871101752592
 21
-147.02427894233691
 31
0.0
  0
LINE
  5
432
  8
DATA
  6
CONTINUOUS
 62
     7
 10
-402.2475000000378
 20
-155.26306793676969
 30
0.0
 11
-400.62750000003768
 21
-153.64306793676971
 31
0.0
  0
LINE
  5
433
  8
DATA
  6
CONTINUOUS
 62
     7
 10
-399.2475000000378
 20
-152.26306793676969
 30
0.0
 11
-397.62750000003791
 21
-150.64306793676971
 31
0.0
  0
LINE
  5
434
  8
DATA
  6
CONTINUOUS
 62
     7
 10
-396.24750000003769
 20
-149.26306793676969
 30
0.0
 11
-394.62750000003768
 21
-147.64306793676971
 31
0.0
  0
LINE
  5
435
  8
DATA
  6
CONTINUOUS
 62
     7
 10
-402.2475000000378
 20
-156.06306794869059
 30
0.0
 11
-400.62750000003768
 21
-154.44306794869061
 31
0.0
  0
LINE
  5
436
  8
DATA
  6
CONTINUOUS
 62
     7
 10
-399.2475000000378
 20
-153.06306794869059
 30
0.0
 11
-397.6165362504081
 21
-151.43210419906089
 31
0.0
  0
LINE
  5
437
  8
DATA
  6
CONTINUOUS
 62
     7
 10
-396.24750000003792
 20
-150.0630679486907
 30
0.0
 11
-394.62750000003768
 21
-148.44306794869061
 31
0.0
  0
LINE
  5
438
  8
DATA
  6
CONTINUOUS
 62
     7
 10
-402.2475000000378
 20
-156.86306796061149
 30
0.0
 11
-400.62750000003768
 21
-155.24306796061151
 31
0.0
  0
LINE
  5
439
  8
DATA
  6
CONTINUOUS
 62
     7
 10
-399.2475000000378
 20
-153.86306796061149
 30
0.0
 11
-397.62750000003791
 21
-152.2430679606116
 31
0.0
  0
LINE
  5
43A
  8
DATA
  6
CONTINUOUS
 62
     7
 10
-396.24750000003792
 20
-150.86306796061149
 30
0.0
 11
-394.62750000003768
 21
-149.24306796061151
 31
0.0
  0
LINE
  5
43B
  8
DATA
  6
CONTINUOUS
 62
     7
 10
-401.8395824129999
 20
-157.25515038549449
 30
0.0
 11
-400.62750000003768
 21
-156.04306797253241
 31
0.0
  0
LINE
  5
43C
  8
DATA
  6
CONTINUOUS
 62
     7
 10
-399.2475000000378
 20
-154.6630679725325
 30
0.0
 11
-397.62750000003791
 21
-153.0430679725325
 31
0.0
  0
LINE
  5
43D
  8
DATA
  6
CONTINUOUS
 62
     7
 10
-396.24750000003769
 20
-151.6630679725325
 30
0.0
 11
-394.62750000003768
 21
-150.04306797253241
 31
0.0
  0
LINE
  5
43E
  8
DATA
  6
CONTINUOUS
 62
     7
 10
-401.19393934488483
 20
-157.40950732930051
 30
0.0
 11
-400.62750000003768
 21
-156.8430679844534
 31
0.0
  0
LINE
  5
43F
  8
DATA
  6
CONTINUOUS
 62
     7
 10
-399.2475000000378
 20
-155.4630679844534
 30
0.0
 11
-397.62750000003791
 21
-153.8430679844534
 31
0.0
  0
LINE
  5
440
  8
DATA
  6
CONTINUOUS
 62
     7
 10
-396.24750000003792
 20
-152.4630679844534
 30
0.0
 11
-394.62750000003768
 21
-150.8430679844534
 31
0.0
  0
LINE
  5
441
  8
DATA
  6
CONTINUOUS
 62
     7
 10
-399.2475000000378
 20
-156.2630679963743
 30
0.0
 11
-397.62750000003791
 21
-154.64306799637441
 31
0.0
  0
LINE
  5
442
  8
DATA
  6
CONTINUOUS
 62
     7
 10
-396.24750000003792
 20
-153.26306799637439
 30
0.0
 11
-394.62750000003768
 21
-151.64306799637441
 31
0.0
  0
LINE
  5
443
  8
DATA
  6
CONTINUOUS
 62
     7
 10
-399.2475000000378
 20
-157.0630680082952
 30
0.0
 11
-397.62750000003791
 21
-155.44306800829531
 31
0.0
  0
LINE
  5
444
  8
DATA
  6
CONTINUOUS
 62
     7
 10
-396.24750000003792
 20
-154.06306800829529
 30
0.0
 11
-394.62750000003768
 21
-152.4430680082952
 31
0.0
  0
LINE
  5
445
  8
DATA
  6
CONTINUOUS
 62
     7
 10
-398.79114884940748
 20
-157.40671686958589
 30
0.0
 11
-397.62750000003791
 21
-156.2430680202163
 31
0.0
  0
LINE
  5
446
  8
DATA
  6
CONTINUOUS
 62
     7
 10
-396.24750000003769
 20
-154.86306802021619
 30
0.0
 11
-394.62750000003768
 21
-153.24306802021621
 31
0.0
  0
LINE
  5
447
  8
DATA
  6
CONTINUOUS
 62
     7
 10
-397.67688719575062
 20
-157.09245522784991
 30
0.0
 11
-397.62750000003791
 21
-157.04306803213711
 31
0.0
  0
LINE
  5
448
  8
DATA
  6
CONTINUOUS
 62
     7
 10
-396.24750000003792
 20
-155.6630680321372
 30
0.0
 11
-394.62750000003768
 21
-154.04306803213711
 31
0.0
  0
LINE
  5
449
  8
DATA
  6
CONTINUOUS
 62
     7
 10
-394.62750000003768
 20
-148.02114044943119
 30
0.0
 11
-396.24750000003792
 21
-146.4011404494313
 31
0.0
  0
LINE
  5
44A
  8
DATA
  6
CONTINUOUS
 62
     7
 10
-397.62750000003791
 20
-145.02114044943119
 30
0.0
 11
-397.81626624670338
 21
-144.83237420276549
 31
0.0
  0
LINE
  5
44B
  8
DATA
  6
CONTINUOUS
 62
     7
 10
-397.62750000003791
 20
-145.8211404494312
 30
0.0
 11
-398.8985998497343
 21
-144.55004059973481
 31
0.0
  0
LINE
  5
44C
  8
DATA
  6
CONTINUOUS
 62
     7
 10
-394.62750000003768
 20
-149.62114044943129
 30
0.0
 11
-396.24750000003792
 21
-148.0011404494312
 31
0.0
  0
LINE
  5
44D
  8
DATA
  6
CONTINUOUS
 62
     7
 10
-397.62750000003791
 20
-146.62114044943121
 30
0.0
 11
-399.2475000000378
 21
-145.0011404494312
 31
0.0
  0
LINE
  5
44E
  8
DATA
  6
CONTINUOUS
 62
     7
 10
-394.62750000003768
 20
-150.42114044943119
 30
0.0
 11
-396.24750000003792
 21
-148.80114044943119
 31
0.0
  0
LINE
  5
44F
  8
DATA
  6
CONTINUOUS
 62
     7
 10
-397.62750000003791
 20
-147.42114044943119
 30
0.0
 11
-399.2475000000378
 21
-145.80114044943119
 31
0.0
  0
LINE
  5
450
  8
DATA
  6
CONTINUOUS
 62
     7
 10
-400.0000000000378
 20
-145.0486404494313
 30
0.0
 11
-400.01653631597321
 21
-145.03210413349581
 31
0.0
  0
LINE
  5
451
  8
DATA
  6
CONTINUOUS
 62
     7
 10
-394.62750000003768
 20
-151.2211404494312
 30
0.0
 11
-396.24750000003792
 21
-149.6011404494312
 31
0.0
  0
LINE
  5
452
  8
DATA
  6
CONTINUOUS
 62
     7
 10
-397.62750000003791
 20
-148.2211404494312
 30
0.0
 11
-399.2475000000378
 21
-146.6011404494312
 31
0.0
  0
LINE
  5
453
  8
DATA
  6
CONTINUOUS
 62
     7
 10
-400.62750000003768
 20
-145.22114044943129
 30
0.0
 11
-401.26789089192482
 21
-144.5807495575441
 31
0.0
  0
LINE
  5
454
  8
DATA
  6
CONTINUOUS
 62
     7
 10
-394.62750000003768
 20
-152.02114044943119
 30
0.0
 11
-396.24750000003769
 21
-150.40114044943121
 31
0.0
  0
LINE
  5
455
  8
DATA
  6
CONTINUOUS
 62
     7
 10
-397.62750000003791
 20
-149.02114044943119
 30
0.0
 11
-399.2475000000378
 21
-147.4011404494313
 31
0.0
  0
LINE
  5
456
  8
DATA
  6
CONTINUOUS
 62
     7
 10
-400.62750000003768
 20
-146.0211404494313
 30
0.0
 11
-401.90741449789181
 21
-144.74122595157721
 31
0.0
  0
LINE
  5
457
  8
DATA
  6
CONTINUOUS
 62
     7
 10
-394.62750000003768
 20
-152.8211404494312
 30
0.0
 11
-396.24750000003792
 21
-151.20114044943119
 31
0.0
  0
LINE
  5
458
  8
DATA
  6
CONTINUOUS
 62
     7
 10
-394.62750000003768
 20
-153.62114044943129
 30
0.0
 11
-396.24750000003792
 21
-152.0011404494312
 31
0.0
  0
LINE
  5
459
  8
DATA
  6
CONTINUOUS
 62
     7
 10
-397.62750000003791
 20
-150.62114044943129
 30
0.0
 11
-399.2475000000378
 21
-149.00114044943129
 31
0.0
  0
LINE
  5
45A
  8
DATA
  6
CONTINUOUS
 62
     7
 10
-400.62750000003768
 20
-147.62114044943129
 30
0.0
 11
-402.2475000000378
 21
-146.0011404494312
 31
0.0
  0
LINE
  5
45B
  8
DATA
  6
CONTINUOUS
 62
     7
 10
-394.62750000003768
 20
-154.42114044943119
 30
0.0
 11
-396.24750000003792
 21
-152.80114044943119
 31
0.0
  0
LINE
  5
45C
  8
DATA
  6
CONTINUOUS
 62
     7
 10
-397.6165362504081
 20
-151.43210419906089
 30
0.0
 11
-399.2475000000378
 21
-149.80114044943119
 31
0.0
  0
LINE
  5
45D
  8
DATA
  6
CONTINUOUS
 62
     7
 10
-400.62750000003768
 20
-148.42114044943131
 30
0.0
 11
-402.2475000000378
 21
-146.80114044943119
 31
0.0
  0
LINE
  5
45E
  8
DATA
  6
CONTINUOUS
 62
     7
 10
-394.84708886442019
 20
-155.00155158504879
 30
0.0
 11
-396.24750000003769
 21
-153.6011404494312
 31
0.0
  0
LINE
  5
45F
  8
DATA
  6
CONTINUOUS
 62
     7
 10
-395.21493641575557
 20
-155.43370403371341
 30
0.0
 11
-396.24750000003792
 21
-154.40114044943121
 31
0.0
  0
LINE
  5
460
  8
DATA
  6
CONTINUOUS
 62
     7
 10
-397.62750000003791
 20
-153.02114044943119
 30
0.0
 11
-399.2475000000378
 21
-151.4011404494313
 31
0.0
  0
LINE
  5
461
  8
DATA
  6
CONTINUOUS
 62
     7
 10
-400.62750000003768
 20
-150.0211404494313
 30
0.0
 11
-402.2475000000378
 21
-148.40114044943121
 31
0.0
  0
LINE
  5
462
  8
DATA
  6
CONTINUOUS
 62
     7
 10
-403.6275000000378
 20
-147.02114044943119
 30
0.0
 11
-404.44567121711481
 21
-146.20296923235401
 31
0.0
  0
LINE
  5
463
  8
DATA
  6
CONTINUOUS
 62
     7
 10
-395.61756350398122
 20
-155.83107694548769
 30
0.0
 11
-396.24750000003769
 21
-155.20114044943119
 31
0.0
  0
LINE
  5
464
  8
DATA
  6
CONTINUOUS
 62
     7
 10
-397.62750000003791
 20
-153.8211404494312
 30
0.0
 11
-399.2475000000378
 21
-152.20114044943119
 31
0.0
  0
LINE
  5
465
  8
DATA
  6
CONTINUOUS
 62
     7
 10
-400.62750000003768
 20
-150.8211404494312
 30
0.0
 11
-402.2475000000378
 21
-149.20114044943119
 31
0.0
  0
LINE
  5
466
  8
DATA
  6
CONTINUOUS
 62
     7
 10
-403.6275000000378
 20
-147.8211404494312
 30
0.0
 11
-404.84304412888918
 21
-146.60559632057971
 31
0.0
  0
LINE
  5
467
  8
DATA
  6
CONTINUOUS
 62
     7
 10
-396.05503003916021
 20
-156.19361041030879
 30
0.0
 11
-396.24750000003769
 21
-156.0011404494312
 31
0.0
  0
LINE
  5
468
  8
DATA
  6
CONTINUOUS
 62
     7
 10
-397.62750000003791
 20
-155.42114044943119
 30
0.0
 11
-399.2475000000378
 21
-153.80114044943119
 31
0.0
  0
LINE
  5
469
  8
DATA
  6
CONTINUOUS
 62
     7
 10
-400.62750000003768
 20
-152.42114044943131
 30
0.0
 11
-402.2475000000378
 21
-150.80114044943119
 31
0.0
  0
LINE
  5
46A
  8
DATA
  6
CONTINUOUS
 62
     7
 10
-403.6275000000378
 20
-149.42114044943119
 30
0.0
 11
-405.24750000003769
 21
-147.80114044943119
 31
0.0
  0
LINE
  5
46B
  8
DATA
  6
CONTINUOUS
 62
     7
 10
-397.62750000003791
 20
-156.2211404494312
 30
0.0
 11
-399.2475000000378
 21
-154.6011404494312
 31
0.0
  0
LINE
  5
46C
  8
DATA
  6
CONTINUOUS
 62
     7
 10
-400.62750000003768
 20
-153.22114044943129
 30
0.0
 11
-402.2475000000378
 21
-151.6011404494312
 31
0.0
  0
LINE
  5
46D
  8
DATA
  6
CONTINUOUS
 62
     7
 10
-403.6275000000378
 20
-150.2211404494312
 30
0.0
 11
-405.24750000003769
 21
-148.60114044943131
 31
0.0
  0
LINE
  5
46E
  8
DATA
  6
CONTINUOUS
 62
     7
 10
-397.62750000003791
 20
-157.02114044943119
 30
0.0
 11
-399.2475000000378
 21
-155.40114044943121
 31
0.0
  0
LINE
  5
46F
  8
DATA
  6
CONTINUOUS
 62
     7
 10
-400.62750000003768
 20
-154.02114044943119
 30
0.0
 11
-402.2475000000378
 21
-152.40114044943121
 31
0.0
  0
LINE
  5
470
  8
DATA
  6
CONTINUOUS
 62
     7
 10
-403.6275000000378
 20
-151.02114044943119
 30
0.0
 11
-405.24750000003769
 21
-149.4011404494313
 31
0.0
  0
LINE
  5
471
  8
DATA
  6
CONTINUOUS
 62
     7
 10
-398.18602910710263
 20
-157.2626113423664
 30
0.0
 11
-399.2475000000378
 21
-156.20114044943119
 31
0.0
  0
LINE
  5
472
  8
DATA
  6
CONTINUOUS
 62
     7
 10
-400.62750000003768
 20
-154.8211404494312
 30
0.0
 11
-402.2475000000378
 21
-153.20114044943119
 31
0.0
  0
LINE
  5
473
  8
DATA
  6
CONTINUOUS
 62
     7
 10
-403.6275000000378
 20
-151.8211404494312
 30
0.0
 11
-405.24750000003769
 21
-150.20114044943119
 31
0.0
  0
LINE
  5
474
  8
DATA
  6
CONTINUOUS
 62
     7
 10
-398.83400102668969
 20
-157.4146394227794
 30
0.0
 11
-399.2475000000378
 21
-157.0011404494312
 31
0.0
  0
LINE
  5
475
  8
DATA
  6
CONTINUOUS
 62
     7
 10
-400.62750000003768
 20
-155.62114044943129
 30
0.0
 11
-402.2475000000378
 21
-154.0011404494312
 31
0.0
  0
LINE
  5
476
  8
DATA
  6
CONTINUOUS
 62
     7
 10
-403.6275000000378
 20
-152.62114044943121
 30
0.0
 11
-405.26060763283272
 21
-150.98803281663621
 31
0.0
  0
LINE
  5
477
  8
DATA
  6
CONTINUOUS
 62
     7
 10
-406.41653632789399
 20
-149.8321041215749
 30
0.0
 11
-406.42660660618088
 21
-149.8220338432881
 31
0.0
  0
LINE
  5
478
  8
DATA
  6
CONTINUOUS
 62
     7
 10
-400.62750000003768
 20
-156.42114044943119
 30
0.0
 11
-402.2475000000378
 21
-154.80114044943119
 31
0.0
  0
LINE
  5
479
  8
DATA
  6
CONTINUOUS
 62
     7
 10
-403.6275000000378
 20
-153.42114044943119
 30
0.0
 11
-405.24750000003769
 21
-151.80114044943119
 31
0.0
  0
LINE
  5
47A
  8
DATA
  6
CONTINUOUS
 62
     7
 10
-400.62750000003768
 20
-157.22114044943129
 30
0.0
 11
-402.2475000000378
 21
-155.6011404494312
 31
0.0
  0
LINE
  5
47B
  8
DATA
  6
CONTINUOUS
 62
     7
 10
-403.6275000000378
 20
-154.2211404494312
 30
0.0
 11
-405.24750000003769
 21
-152.6011404494312
 31
0.0
  0
LINE
  5
47C
  8
DATA
  6
CONTINUOUS
 62
     7
 10
-401.24976400622569
 20
-157.3988764432433
 30
0.0
 11
-402.2475000000378
 21
-156.40114044943121
 31
0.0
  0
LINE
  5
47D
  8
DATA
  6
CONTINUOUS
 62
     7
 10
-403.6275000000378
 20
-155.02114044943119
 30
0.0
 11
-405.24750000003769
 21
-153.4011404494313
 31
0.0
  0
LINE
  5
47E
  8
DATA
  6
CONTINUOUS
 62
     7
 10
-403.62750000003768
 20
-155.8211404494312
 30
0.0
 11
-405.24750000003769
 21
-154.20114044943119
 31
0.0
  0
LINE
  5
47F
  8
DATA
  6
CONTINUOUS
 62
     7
 10
-394.62750000003768
 20
-148.8725000002911
 30
0.0
 11
-396.24750000003769
 21
-147.25250000029101
 31
0.0
  0
LINE
  5
480
  8
DATA
  6
CONTINUOUS
 62
     7
 10
-397.62750000003791
 20
-149.87250000029101
 30
0.0
 11
-399.2475000000378
 21
-148.25250000029109
 31
0.0
  0
LINE
  5
481
  8
DATA
  6
CONTINUOUS
 62
     7
 10
-397.62750000003791
 20
-154.58852307112201
 30
0.0
 11
-399.2475000000378
 21
-152.96852307112201
 31
0.0
  0
LINE
  5
482
  8
DATA
  6
CONTINUOUS
 62
     7
 10
-397.62750000003791
 20
-152.22895010917819
 30
0.0
 11
-399.2475000000378
 21
-150.60895010917821
 31
0.0
  0
LINE
  5
483
  8
DATA
  6
CONTINUOUS
 62
     7
 10
-400.62750000003768
 20
-146.8725000002911
 30
0.0
 11
-402.2475000000378
 21
-145.25250000029101
 31
0.0
  0
LINE
  5
484
  8
DATA
  6
CONTINUOUS
 62
     7
 10
-400.62750000003768
 20
-149.21234166193119
 30
0.0
 11
-402.2475000000378
 21
-147.59234166193119
 31
0.0
  0
LINE
  5
485
  8
DATA
  6
CONTINUOUS
 62
     7
 10
-400.62750000003768
 20
-151.61409787110591
 30
0.0
 11
-402.2475000000378
 21
-149.99409787110591
 31
0.0
  0
LINE
  5
486
  8
DATA
  6
CONTINUOUS
 62
     7
 10
-403.6275000000378
 20
-148.63807290766161
 30
0.0
 11
-405.19489479729788
 21
-147.07067811040139
 31
0.0
  0
ARC
  5
487
  8
DATA
  6
CONTINUOUS
 62
     7
 10
-127.9375000030569
 20
-150.98558502458101
 30
0.0
 40
7.06249999722551
 50
90.370972128561007
 51
269.62902787143901
  0
LINE
  5
488
  8
DATA
  6
CONTINUOUS
 62
     7
 10
-126.9999995745398
 20
-143.98558502458101
 30
0.0
 11
-127.9832271468983
 21
-143.9232330623006
 31
0.0
  0
LINE
  5
489
  8
DATA
  6
CONTINUOUS
 62
     7
 10
-126.9999995745398
 20
-157.9855850245811
 30
0.0
 11
-127.9832271468983
 21
-158.04793698686149
 31
0.0
  0
LINE
  5
48A
  8
DATA
  6
STYLE_02
 62
     7
 10
290.90319753463763
 20
-158.97092698121841
 30
0.0
 11
280.01375310436481
 21
-169.86037141149109
 31
0.0
  0
LINE
  5
48B
  8
DATA
  6
STYLE_02
 62
     7
 10
274.49832021110967
 20
-164.34493851823609
 30
0.0
 11
288.10322714607292
 21
-150.74003158327281
 31
0.0
  0
LINE
  5
48C
  8
DATA
  6
STYLE_01
 62
     7
 10
280.54408319025481
 20
-170.390701497381
 30
0.0
 11
273.9679901252199
 21
-163.8146084323462
 31
0.0
  0
LINE
  5
48D
  8
DATA
  6
STYLE_01
 62
     7
 10
258.09344288758189
 20
-190.36646806590079
 30
0.0
 11
253.9922235567
 21
-186.26524873501879
 31
0.0
  0
LINE
  5
48E
  8
DATA
  6
STYLE_01
 62
     7
 10
280.54408319025481
 20
-170.390701497381
 30
0.0
 11
270.86064693137348
 21
-180.0741377562621
 31
0.0
  0
ARC
  5
48F
  8
DATA
  6
STYLE_01
 62
     7
 10
138.23798978917409
 20
-27.570356817734961
 30
0.0
 40
202.15811503610189
 50
306.36163156084439
 51
310.57378918524449
  0
ARC
  5
490
  8
DATA
  6
STYLE_01
 62
     7
 10
256.71851130763861
 20
-165.9320021325276
 30
0.0
 40
20.000000000005269
 50
310.5737891852462
 51
315.0000000000004
  0
LINE
  5
491
  8
DATA
  6
STYLE_01
 62
     7
 10
273.9679901252199
 20
-163.8146084323462
 30
0.0
 11
264.28455386633863
 21
-173.49804469122739
 31
0.0
  0
ARC
  5
492
  8
DATA
  6
STYLE_01
 62
     7
 10
416.78833480486651
 20
-306.12070183342757
 30
0.0
 40
202.158115036103
 50
139.42621081475539
 51
143.6383684391555
  0
ARC
  5
493
  8
DATA
  6
STYLE_01
 62
     7
 10
278.42668949007327
 20
-187.64018031496209
 30
0.0
 40
20.00000000000529
 50
135.0
 51
139.4262108147542
  0
LINE
  5
494
  8
DATA
  6
STYLE_01
 62
     7
 10
258.09344288758189
 20
-190.36646806590079
 30
0.0
 11
10.721616955250591
 21
-416.65893855732207
 31
0.0
  0
LINE
  5
495
  8
DATA
  6
STYLE_01
 62
     7
 10
-10.258926524300881
 20
-443.2473173071325
 30
0.0
 11
-20.15842146091255
 21
-433.3478223705207
 31
0.0
  0
ARC
  5
496
  8
DATA
  6
STYLE_01
 62
     7
 10
119.9649635216966
 20
-533.2072410523574
 30
0.0
 40
158.27523311926859
 50
139.92438642554441
 51
145.3629081069833
  0
LINE
  5
497
  8
DATA
  6
STYLE_01
 62
     7
 10
6.5909386732694966
 20
-421.5433829883288
 30
0.0
 11
-1.1465303634985911
 21
-431.30996205112422
 31
0.0
  0
ARC
  5
498
  8
DATA
  6
STYLE_01
 62
     7
 10
-110.1183452061337
 20
-303.1239323245228
 30
0.0
 40
158.27523311926649
 50
304.63709189301528
 51
310.07561357445439
  0
LINE
  5
499
  8
DATA
  6
STYLE_01
 62
     7
 10
1.578897724896698
 20
-416.47150836491892
 30
0.0
 11
-8.2210662049043393
 21
-424.23542620971818
 31
0.0
  0
ARC
  5
49A
  8
DATA
  6
STYLE_01
 62
     7
 10
83.518202012761009
 20
-485.37582821982858
 30
0.0
 40
100.0
 50
134.99999999999969
 51
141.61234673645541
  0
ARC
  5
49B
  8
DATA
  6
STYLE_01
 62
     7
 10
-60.518990956277278
 20
-338.08877926379267
 30
0.0
 40
100.0
 50
308.38765326354411
 51
314.99999999999989
  0
LINE
  5
49C
  8
DATA
  6
STYLE_01
 62
     7
 10
-7.8065516420998389
 20
-438.62862437746799
 30
0.0
 11
-10.89532262736876
 21
-435.53985339219912
 31
0.0
  0
LINE
  5
49D
  8
DATA
  6
STYLE_01
 62
     7
 10
-12.450957545979159
 20
-433.98421847358873
 30
0.0
 11
-15.53972853124799
 21
-430.8954474883198
 31
0.0
  0
LINE
  5
49E
  8
DATA
  6
STYLE_01
 62
     7
 10
-12.450957545979129
 20
-433.98421847358873
 30
0.0
 11
-11.885272121029891
 21
-433.41853304863929
 31
0.0
  0
LINE
  5
49F
  8
DATA
  6
STYLE_01
 62
     7
 10
-11.31958669608065
 20
-432.85284762369008
 30
0.0
 11
-10.75390127113142
 21
-432.28716219874087
 31
0.0
  0
LINE
  5
4A0
  8
DATA
  6
STYLE_01
 62
     7
 10
-10.18821584618221
 20
-431.72147677379161
 30
0.0
 11
-9.6225304212329146
 21
-431.1557913488424
 31
0.0
  0
LINE
  5
4A1
  8
DATA
  6
STYLE_01
 62
     7
 10
-8.0668955026225202
 20
-432.71142626745279
 30
0.0
 11
-8.6325809275718122
 21
-433.277111692402
 31
0.0
  0
LINE
  5
4A2
  8
DATA
  6
STYLE_01
 62
     7
 10
-9.1982663525210242
 20
-433.84279711735138
 30
0.0
 11
-9.7639517774702593
 21
-434.40848254230059
 31
0.0
  0
LINE
  5
4A3
  8
DATA
  6
STYLE_01
 62
     7
 10
-10.3296372024195
 20
-434.9741679672498
 30
0.0
 11
-10.89532262736873
 21
-435.53985339219912
 31
0.0
  0
LINE
  5
4A4
  8
DATA
  6
STYLE_01
 62
     7
 10
-7.3242136010619054
 20
-437.97959156860742
 30
0.0
 11
-10.3296372024195
 21
-434.9741679672498
 31
0.0
  0
LINE
  5
4A5
  8
DATA
  6
STYLE_01
 62
     7
 10
-11.885272121029891
 20
-433.41853304863929
 30
0.0
 11
-14.890695722387431
 21
-430.41310944728178
 31
0.0
  0
LINE
  5
4A6
  8
DATA
  6
STYLE_01
 62
     7
 10
-6.8389259829692497
 20
-437.33350833680157
 30
0.0
 11
-9.7639517774702593
 21
-434.40848254230059
 31
0.0
  0
LINE
  5
4A7
  8
DATA
  6
STYLE_01
 62
     7
 10
-11.31958669608065
 20
-432.85284762369002
 30
0.0
 11
-14.244612490581661
 21
-429.92782182918921
 31
0.0
  0
LINE
  5
4A8
  8
DATA
  6
STYLE_01
 62
     7
 10
-6.3506952015462508
 20
-436.69036826832621
 30
0.0
 11
-9.1982663525210242
 21
-433.84279711735138
 31
0.0
  0
LINE
  5
4A9
  8
DATA
  6
STYLE_01
 62
     7
 10
-10.75390127113142
 20
-432.28716219874087
 30
0.0
 11
-13.60147242210622
 21
-429.4395910477661
 31
0.0
  0
LINE
  5
4AA
  8
DATA
  6
STYLE_01
 62
     7
 10
-5.8595274181518331
 20
-436.0501652018221
 30
0.0
 11
-8.6325809275718122
 21
-433.277111692402
 31
0.0
  0
LINE
  5
4AB
  8
DATA
  6
STYLE_01
 62
     7
 10
-10.18821584618221
 20
-431.72147677379161
 30
0.0
 11
-12.96126935560207
 21
-428.9484232643718
 31
0.0
  0
LINE
  5
4AC
  8
DATA
  6
STYLE_01
 62
     7
 10
-5.3654285442905021
 20
-435.41289322578479
 30
0.0
 11
-8.0668955026225504
 21
-432.71142626745279
 31
0.0
  0
LINE
  5
4AD
  8
DATA
  6
STYLE_01
 62
     7
 10
-9.6225304212329448
 20
-431.1557913488424
 30
0.0
 11
-12.323997379564929
 21
-428.45432439051041
 31
0.0
  0
ARC
  5
4AE
  8
DATA
  6
STYLE_01
 62
     7
 10
119.469988774866
 20
-532.7122663055269
 30
0.0
 40
158.27523311926851
 50
142.06639275449859
 51
142.35830349622819
  0
ARC
  5
4AF
  8
DATA
  6
STYLE_01
 62
     7
 10
119.469988774866
 20
-532.7122663055269
 30
0.0
 40
158.27523311926839
 50
142.65040642323149
 51
142.9427095230815
  0
ARC
  5
4B0
  8
DATA
  6
STYLE_01
 62
     7
 10
119.469988774866
 20
-532.7122663055269
 30
0.0
 40
158.27523311926839
 50
143.23522083162041
 51
143.5279484350846
  0
ARC
  5
4B1
  8
DATA
  6
STYLE_01
 62
     7
 10
-109.6233704593031
 20
-303.61890707135331
 30
0.0
 40
158.27523311926649
 50
306.47205156491418
 51
306.76477916837842
  0
ARC
  5
4B2
  8
DATA
  6
STYLE_01
 62
     7
 10
-109.6233704593031
 20
-303.61890707135331
 30
0.0
 40
158.27523311926649
 50
307.05729047691739
 51
307.34959357676718
  0
ARC
  5
4B3
  8
DATA
  6
STYLE_01
 62
     7
 10
-109.6233704593031
 20
-303.61890707135331
 30
0.0
 40
158.27523311926649
 50
307.64169650377079
 51
307.9336072455003
  0
LINE
  5
4B4
  8
DATA
  6
STYLE_01
 62
     7
 10
14.26298965574076
 20
-412.93059355084802
 30
0.0
 11
10.16176399613143
 21
-408.82936789123869
 31
0.0
  0
LINE
  5
4B5
  8
DATA
  6
STYLE_01
 62
     7
 10
290.90319753463768
 20
-158.97092698121841
 30
0.0
 11
284.14342917142852
 21
-154.69982955791761
 31
0.0
  0
LINE
  5
4B6
  8
DATA
  6
STYLE_01
 62
     7
 10
290.33751210968842
 20
-159.53661240616759
 30
0.0
 11
283.5777437464792
 21
-155.26551498286679
 31
0.0
  0
LINE
  5
4B7
  8
DATA
  6
STYLE_01
 62
     7
 10
288.92329854731531
 20
-160.9508259685407
 30
0.0
 11
282.16353018410598
 21
-156.6797285452399
 31
0.0
  0
LINE
  5
4B8
  8
DATA
  6
STYLE_01
 62
     7
 10
288.35761312236599
 20
-161.51651139348999
 30
0.0
 11
281.59784475915689
 21
-157.24541397018911
 31
0.0
  0
LINE
  5
4B9
  8
DATA
  6
STYLE_01
 62
     7
 10
286.943399559993
 20
-162.9307249558631
 30
0.0
 11
280.18363119678378
 21
-158.65962753256221
 31
0.0
  0
LINE
  5
4BA
  8
DATA
  6
STYLE_01
 62
     7
 10
286.37771413504368
 20
-163.49641038081231
 30
0.0
 11
279.61794577183463
 21
-159.22531295751151
 31
0.0
  0
LINE
  5
4BB
  8
DATA
  6
STYLE_01
 62
     7
 10
284.96350057267068
 20
-164.91062394318541
 30
0.0
 11
278.20373220946152
 21
-160.6395265198845
 31
0.0
  0
LINE
  5
4BC
  8
DATA
  6
STYLE_01
 62
     7
 10
284.39781514772142
 20
-165.47630936813459
 30
0.0
 11
277.6380467845122
 21
-161.20521194483371
 31
0.0
  0
LINE
  5
4BD
  8
DATA
  6
STYLE_01
 62
     7
 10
282.98360158534831
 20
-166.89052293050759
 30
0.0
 11
276.22383322213921
 21
-162.61942550720681
 31
0.0
  0
LINE
  5
4BE
  8
DATA
  6
STYLE_01
 62
     7
 10
282.4179161603991
 20
-167.45620835545691
 30
0.0
 11
275.65814779719
 21
-163.18511093215611
 31
0.0
  0
LINE
  5
4BF
  8
DATA
  6
STYLE_01
 62
     7
 10
281.003702598026
 20
-168.8704219178299
 30
0.0
 11
275.62586886266502
 21
-165.47248716979129
 31
0.0
  0
LINE
  5
4C0
  8
DATA
  6
STYLE_01
 62
     7
 10
280.43801717307679
 20
-169.4361073427792
 30
0.0
 11
278.13323128649358
 21
-167.97984959361989
 31
0.0
  0
ARC
  5
4C1
  8
DATA
  6
STYLE_01
 62
     7
 10
-15.87158690297645
 20
-438.96048274919639
 30
0.0
 40
7.0624999972254789
 50
135.37097212856111
 51
314.62902787143878
  0
LINE
  5
4C2
  8
DATA
  6
STYLE_01
 62
     7
 10
-20.158421460912521
 20
-433.3478223705207
 30
0.0
 11
-20.89775784012555
 21
-433.99897975903622
 31
0.0
  0
LINE
  5
4C3
  8
DATA
  6
STYLE_01
 62
     7
 10
-10.258926524300881
 20
-443.2473173071325
 30
0.0
 11
-10.91008391281634
 21
-443.98665368634551
 31
0.0
  0
ARC
  5
4C4
  8
DATA
  6
CONTINUOUS
 62
     7
 10
305.5994174942096
 20
-188.9510732422408
 30
0.0
 40
42.026186852504289
 50
95.050251138079517
 51
114.602243150465
  0
ARC
  5
4C5
  8
DATA
  6
CONTINUOUS
 62
     7
 10
306.72913461623511
 20
-187.57885563840321
 30
0.0
 40
32.693636484264928
 50
90.752298564627921
 51
118.95141603136079
  0
LINE
  5
4C6
  8
DATA
  6
STYLE_05
 62
     7
 10
-410.3000000000377
 20
-454.53212792054393
 30
0.0
 11
-389.69999104979081
 21
-454.53212792054393
 31
0.0
  0
ARC
  5
4C7
  8
DATA
  6
STYLE_05
 62
     7
 10
-388.39727014660531
 20
-426.86951902660053
 30
0.0
 40
25.912349336689061
 50
125.19154122552879
 51
150.9644179878666
  0
ARC
  5
4C8
  8
DATA
  6
STYLE_05
 62
     7
 10
-1176.7474263054521
 20
-525.37074876483825
 30
0.0
 40
769.71408165195635
 50
5.2805393938085592
 51
7.3750603996174071
  0
ARC
  5
4C9
  8
DATA
  6
STYLE_05
 62
     7
 10
-393.56654631600861
 20
-423.9999443961529
 30
0.0
 40
19.999999999999972
 50
150.96441798786699
 51
187.3750603996175
  0
ARC
  5
4CA
  8
DATA
  6
STYLE_05
 62
     7
 10
-411.6027209032232
 20
-426.86951902660053
 30
0.0
 40
25.912349336689019
 50
29.035582012133428
 51
54.808458774469429
  0
ARC
  5
4CB
  8
DATA
  6
STYLE_05
 62
     7
 10
376.74743525562451
 20
-525.37074876483825
 30
0.0
 40
769.71408165195771
 50
172.62493960038259
 51
174.71946060619149
  0
ARC
  5
4CC
  8
DATA
  6
STYLE_05
 62
     7
 10
-406.4334447338199
 20
-423.9999443961529
 30
0.0
 40
20.0
 50
352.62493960038262
 51
29.035582012132981
  0
ARC
  5
4CD
  8
DATA
  6
STYLE_05
 62
     7
 10
-399.99999552491431
 20
-410.77702625869318
 30
0.0
 40
6.0778490478665059
 50
56.767802897125421
 51
123.2321971028737
  0
LINE
  5
4CE
  8
DATA
  6
STYLE_05
 62
     7
 10
-410.3000000000377
 20
54.53212792086493
 30
0.0
 11
-389.69999104979081
 21
54.53212792086493
 31
0.0
  0
ARC
  5
4CF
  8
DATA
  6
STYLE_05
 62
     7
 10
-388.39727014660531
 20
26.869519026921751
 30
0.0
 40
25.912349336689001
 50
209.03558201213329
 51
234.80845877447121
  0
ARC
  5
4D0
  8
DATA
  6
STYLE_05
 62
     7
 10
-1176.7474263054521
 20
125.3707487651583
 30
0.0
 40
769.71408165195635
 50
352.62493960038267
 51
354.71946060619149
  0
ARC
  5
4D1
  8
DATA
  6
STYLE_05
 62
     7
 10
-393.56654631600861
 20
23.999944396474231
 30
0.0
 40
20.0
 50
172.62493960038259
 51
209.03558201213281
  0
ARC
  5
4D2
  8
DATA
  6
STYLE_05
 62
     7
 10
-411.6027209032232
 20
26.869519026921751
 30
0.0
 40
25.91234933668899
 50
305.19154122553073
 51
330.96441798786668
  0
ARC
  5
4D3
  8
DATA
  6
STYLE_05
 62
     7
 10
376.74743525562451
 20
125.3707487651583
 30
0.0
 40
769.7140816519576
 50
185.2805393938084
 51
187.37506039961721
  0
ARC
  5
4D4
  8
DATA
  6
STYLE_05
 62
     7
 10
-406.4334447338199
 20
23.999944396474231
 30
0.0
 40
19.99999999999995
 50
330.96441798786719
 51
7.3750603996173254
  0
ARC
  5
4D5
  8
DATA
  6
STYLE_05
 62
     7
 10
-399.99999552491431
 20
10.777026259014461
 30
0.0
 40
6.0778490478664438
 50
236.76780289712639
 51
303.23219710287458
  0
LINE
  5
4D6
  8
DATA
  6
STYLE_05
 62
     7
 10
-94.785478859597646
 20
-140.4828173820905
 30
0.0
 11
-94.785478859597646
 21
-161.0828263323377
 31
0.0
  0
ARC
  5
4D7
  8
DATA
  6
STYLE_05
 62
     7
 10
-122.4480877535411
 20
-162.38554723552321
 30
0.0
 40
25.912349336689001
 50
119.0355820121333
 51
144.80845877447109
  0
ARC
  5
4D8
  8
DATA
  6
STYLE_05
 62
     7
 10
-23.946858015304201
 20
625.96460892332334
 30
0.0
 40
769.71408165195612
 50
262.62493960038262
 51
264.71946060619149
  0
ARC
  5
4D9
  8
DATA
  6
STYLE_05
 62
     7
 10
-125.3176623839886
 20
-157.2162710661199
 30
0.0
 40
20.0
 50
82.624939600382604
 51
119.03558201213281
  0
ARC
  5
4DA
  8
DATA
  6
STYLE_05
 62
     7
 10
-122.4480877535411
 20
-139.18009647890511
 30
0.0
 40
25.912349336688969
 50
215.19154122553061
 51
240.96441798786671
  0
ARC
  5
4DB
  8
DATA
  6
STYLE_05
 62
     7
 10
-23.946858015304201
 20
-927.53025263775442
 30
0.0
 40
769.71408165195896
 50
95.280539393808525
 51
97.375060399617325
  0
ARC
  5
4DC
  8
DATA
  6
STYLE_05
 62
     7
 10
-125.3176623839886
 20
-144.34937264830839
 30
0.0
 40
19.999999999999972
 50
240.96441798786731
 51
277.37506039961738
  0
ARC
  5
4DD
  8
DATA
  6
STYLE_05
 62
     7
 10
-138.54058052144831
 20
-150.78282185721409
 30
0.0
 40
6.0778490478664118
 50
146.76780289712579
 51
213.23219710287489
  0
LINE
  5
4DE
  8
DATA
  6
STYLE_05
 62
     7
 10
1.321197847923876
 20
-407.25851944999528
 30
0.0
 11
15.88760386914705
 21
-421.82492547121859
 31
0.0
  0
ARC
  5
4DF
  8
DATA
  6
STYLE_05
 62
     7
 10
-2.7516516804354358
 20
-442.30650659007341
 30
0.0
 40
25.912349336689061
 50
164.03558201213349
 51
189.80845877447121
  0
ARC
  5
4E0
  8
DATA
  6
STYLE_05
 62
     7
 10
-490.54850554670583
 20
184.79212228244239
 30
0.0
 40
769.71408165195476
 50
307.6249396003825
 51
309.71946060619132
  0
ARC
  5
4E1
  8
DATA
  6
STYLE_05
 62
     7
 10
-8.4359775939568422
 20
-440.6803720371725
 30
0.0
 40
20.000000000000199
 50
127.62493960038231
 51
164.03558201213281
  0
ARC
  5
4E2
  8
DATA
  6
STYLE_05
 62
     7
 10
-19.16038327093057
 20
-425.89777499957802
 30
0.0
 40
25.912349336689211
 50
260.19154122553073
 51
285.96441798786663
  0
ARC
  5
4E3
  8
DATA
  6
STYLE_05
 62
     7
 10
607.93824560159089
 20
-913.69462886584995
 30
0.0
 40
769.7140816519609
 50
140.28053939380879
 51
142.37506039961769
  0
ARC
  5
4E4
  8
DATA
  6
STYLE_05
 62
     7
 10
-17.53424871802989
 20
-431.58210091309962
 30
0.0
 40
20.000000000000039
 50
285.96441798786742
 51
322.3750603996175
  0
ARC
  5
4E5
  8
DATA
  6
STYLE_05
 62
     7
 10
-22.335128238065831
 20
-445.48125155720851
 30
0.0
 40
6.0778490478664429
 50
191.76780289712639
 51
258.23219710287498
  0
LINE
  5
4E6
  8
DATA
  6
CONTINUOUS
 62
     7
 10
-389.69999104979081
 20
-454.53212792054393
 30
0.0
 11
-350.0
 21
-550.0
 31
0.0
  0
LINE
  5
4E7
  8
DATA
  6
CONTINUOUS
 62
     7
 10
-389.69999104979081
 20
-454.53212792054393
 30
0.0
 11
-369.46318682571592
 21
-480.43405614947818
 31
0.0
  0
LINE
  5
4E8
  8
DATA
  6
CONTINUOUS
 62
     7
 10
-389.69999104979081
 20
-454.53212792054393
 30
0.0
 11
-385.1253686147968
 21
-487.08225788583979
 31
0.0
  0
LINE
  5
4E9
  8
DATA
  6
CONTINUOUS
 62
     7
 10
-350.0
 20
-550.0
 30
0.0
 11
-25.0
 21
-550.0
 31
0.0
  0
LINE
  5
4EA
  8
DATA
  6
STYLE_01
 62
     7
 10
253.9922235567
 20
-186.26524873501879
 30
0.0
 11
10.19168716237732
 21
-408.79945738244749
 31
0.0
  0
TEXT
  5
4EB
  8
DATA
 62
     7
 10
475.0
 20
-1117.6906592541061
 30
0.0
 40
16.288411457518912
  1
グーズネック・マイクロホン
 41
0.7
 11
475.0
 21
-1101.4022477965871
 31
0.0
 73
     3
  0
LINE
  5
4EC
  8
DATA
  6
CONTINUOUS
 62
     7
 10
203.9999999999973
 20
-400.0
 30
0.0
 11
696.00000000000227
 21
-400.0
 31
0.0
  0
LINE
  5
4ED
  8
DATA
  6
CONTINUOUS
 62
     7
 10
203.9999999999973
 20
-989.19999999999879
 30
0.0
 11
203.9999999999973
 21
-400.0
 31
0.0
  0
LINE
  5
4EE
  8
DATA
  6
CONTINUOUS
 62
     7
 10
696.00000000000227
 20
-989.19999999999879
 30
0.0
 11
696.00000000000227
 21
-400.0
 31
0.0
  0
LINE
  5
4EF
  8
DATA
  6
CONTINUOUS
 62
     7
 10
203.9999999999973
 20
-436.0
 30
0.0
 11
696.00000000000227
 21
-436.0
 31
0.0
  0
LINE
  5
4F0
  8
DATA
  6
CONTINUOUS
 62
     7
 10
203.9999999999973
 20
-463.5999999999994
 30
0.0
 11
696.00000000000227
 21
-463.5999999999994
 31
0.0
  0
LINE
  5
4F1
  8
DATA
  6
CONTINUOUS
 62
     7
 10
203.9999999999973
 20
-491.19999999999879
 30
0.0
 11
696.00000000000227
 21
-491.19999999999879
 31
0.0
  0
LINE
  5
4F2
  8
DATA
  6
CONTINUOUS
 62
     7
 10
203.9999999999973
 20
-518.79999999999905
 30
0.0
 11
696.00000000000227
 21
-518.79999999999905
 31
0.0
  0
LINE
  5
4F3
  8
DATA
  6
CONTINUOUS
 62
     7
 10
203.9999999999973
 20
-546.39999999999907
 30
0.0
 11
696.00000000000227
 21
-546.39999999999907
 31
0.0
  0
LINE
  5
4F4
  8
DATA
  6
CONTINUOUS
 62
     7
 10
203.9999999999973
 20
-573.9999999999992
 30
0.0
 11
696.00000000000227
 21
-573.9999999999992
 31
0.0
  0
LINE
  5
4F5
  8
DATA
  6
CONTINUOUS
 62
     7
 10
203.9999999999973
 20
-601.60000000000014
 30
0.0
 11
696.00000000000227
 21
-601.60000000000014
 31
0.0
  0
LINE
  5
4F6
  8
DATA
  6
CONTINUOUS
 62
     7
 10
203.9999999999973
 20
-629.20000000000016
 30
0.0
 11
696.00000000000227
 21
-629.20000000000016
 31
0.0
  0
LINE
  5
4F7
  8
DATA
  6
CONTINUOUS
 62
     7
 10
203.9999999999973
 20
-656.79999999999961
 30
0.0
 11
696.00000000000227
 21
-656.79999999999961
 31
0.0
  0
LINE
  5
4F8
  8
DATA
  6
CONTINUOUS
 62
     7
 10
203.9999999999973
 20
-684.40000000000055
 30
0.0
 11
696.00000000000227
 21
-684.40000000000055
 31
0.0
  0
LINE
  5
4F9
  8
DATA
  6
CONTINUOUS
 62
     7
 10
203.9999999999973
 20
-712.0
 30
0.0
 11
696.00000000000227
 21
-712.0
 31
0.0
  0
LINE
  5
4FA
  8
DATA
  6
CONTINUOUS
 62
     7
 10
203.9999999999973
 20
-739.60000000000014
 30
0.0
 11
696.00000000000227
 21
-739.60000000000014
 31
0.0
  0
LINE
  5
4FB
  8
DATA
  6
CONTINUOUS
 62
     7
 10
203.9999999999973
 20
-767.20000000000005
 30
0.0
 11
696.00000000000227
 21
-767.20000000000005
 31
0.0
  0
LINE
  5
4FC
  8
DATA
  6
CONTINUOUS
 62
     7
 10
203.9999999999973
 20
-794.79999999999973
 30
0.0
 11
696.00000000000227
 21
-794.79999999999973
 31
0.0
  0
LINE
  5
4FD
  8
DATA
  6
CONTINUOUS
 62
     7
 10
203.9999999999973
 20
-822.39999999999975
 30
0.0
 11
696.00000000000227
 21
-822.39999999999975
 31
0.0
  0
LINE
  5
4FE
  8
DATA
  6
CONTINUOUS
 62
     7
 10
203.9999999999973
 20
-850.0
 30
0.0
 11
696.00000000000227
 21
-850.0
 31
0.0
  0
LINE
  5
4FF
  8
DATA
  6
CONTINUOUS
 62
     7
 10
203.9999999999973
 20
-877.59999999999945
 30
0.0
 11
696.00000000000227
 21
-877.59999999999945
 31
0.0
  0
LINE
  5
500
  8
DATA
  6
CONTINUOUS
 62
     7
 10
203.9999999999973
 20
-905.1999999999997
 30
0.0
 11
696.00000000000227
 21
-905.1999999999997
 31
0.0
  0
LINE
  5
501
  8
DATA
  6
CONTINUOUS
 62
     7
 10
311.99999999999733
 20
-436.0
 30
0.0
 11
311.99999999999733
 21
-905.1999999999997
 31
0.0
  0
LINE
  5
502
  8
DATA
  6
CONTINUOUS
 62
     7
 10
419.99999999999721
 20
-436.0
 30
0.0
 11
419.99999999999721
 21
-905.1999999999997
 31
0.0
  0
LINE
  5
503
  8
DATA
  6
CONTINUOUS
 62
     7
 10
527.99999999999716
 20
-436.0
 30
0.0
 11
527.99999999999716
 21
-905.1999999999997
 31
0.0
  0
TEXT
  5
504
  8
DATA
 62
     7
 10
254.68188362165111
 20
-430.40625082231668
 30
0.0
 40
23.455312500000002
  1
disconnect before setting
 41
0.7
 72
     1
 11
439.66611487165108
 21
-418.67859457231668
 31
0.0
 73
     2
  0
TEXT
  5
505
  8
DATA
 62
     7
 10
235.18633234668371
 20
-457.68313225711762
 30
0.0
 40
23.455312500000002
  1
pos
 41
0.7
 72
     1
 11
257.07795734668372
 21
-445.95547600711762
 31
0.0
 73
     2
  0
TEXT
  5
506
  8
DATA
 62
     7
 10
254.67411216558739
 20
-487.9012827631235
 30
0.0
 40
19.546093750000001
  1
0
 41
0.7
 72
     1
 11
258.09467857183739
 21
-478.12823588812341
 31
0.0
 73
     2
  0
TEXT
  5
507
  8
DATA
 62
     7
 10
255.8143009676707
 20
-515.50128276312284
 30
0.0
 40
19.546093750000001
  1
1
 41
0.7
 72
     1
 11
258.09467857183739
 21
-505.72823588812292
 31
0.0
 73
     2
  0
TEXT
  5
508
  8
DATA
 62
     7
 10
253.5339233635041
 20
-543.10128276312309
 30
0.0
 40
19.546093750000001
  1
2
 41
0.7
 72
     1
 11
258.09467857183739
 21
-533.32823588812312
 31
0.0
 73
     2
  0
TEXT
  5
509
  8
DATA
 62
     7
 10
253.5339233635041
 20
-570.70128276312323
 30
0.0
 40
19.546093750000001
  1
3
 41
0.7
 72
     1
 11
258.09467857183739
 21
-560.92823588812325
 31
0.0
 73
     2
  0
TEXT
  5
50A
  8
DATA
 62
     7
 10
253.5339233635041
 20
-598.30128276312416
 30
0.0
 40
19.546093750000001
  1
4
 41
0.7
 72
     1
 11
258.09467857183739
 21
-588.52823588812419
 31
0.0
 73
     2
  0
TEXT
  5
50B
  8
DATA
 62
     7
 10
253.5339233635041
 20
-625.90128276312419
 30
0.0
 40
19.546093750000001
  1
5
 41
0.7
 72
     1
 11
258.09467857183739
 21
-616.1282358881241
 31
0.0
 73
     2
  0
TEXT
  5
50C
  8
DATA
 62
     7
 10
253.5339233635041
 20
-653.50128276312432
 30
0.0
 40
19.546093750000001
  1
6
 41
0.7
 72
     1
 11
258.09467857183739
 21
-643.72823588812435
 31
0.0
 73
     2
  0
TEXT
  5
50D
  8
DATA
 62
     7
 10
253.5339233635041
 20
-681.10128276312378
 30
0.0
 40
19.546093750000001
  1
7
 41
0.7
 72
     1
 11
258.09467857183739
 21
-671.3282358881238
 31
0.0
 73
     2
  0
TEXT
  5
50E
  8
DATA
 62
     7
 10
253.5339233635041
 20
-708.70128276312391
 30
0.0
 40
19.546093750000001
  1
8
 41
0.7
 72
     1
 11
258.09467857183739
 21
-698.92823588812394
 31
0.0
 73
     2
  0
TEXT
  5
50F
  8
DATA
 62
     7
 10
253.5339233635041
 20
-736.30128276312394
 30
0.0
 40
19.546093750000001
  1
9
 41
0.7
 72
     1
 11
258.09467857183739
 21
-726.52823588812385
 31
0.0
 73
     2
  0
TEXT
  5
510
  8
DATA
 62
     7
 10
253.5339233635041
 20
-763.90128276312339
 30
0.0
 40
19.546093750000001
  1
A
 41
0.7
 72
     1
 11
258.09467857183739
 21
-754.12823588812353
 31
0.0
 73
     2
  0
TEXT
  5
511
  8
DATA
 62
     7
 10
253.5339233635041
 20
-791.50128276312432
 30
0.0
 40
19.546093750000001
  1
B
 41
0.7
 72
     1
 11
258.09467857183739
 21
-781.72823588812435
 31
0.0
 73
     2
  0
TEXT
  5
512
  8
DATA
 62
     7
 10
253.5339233635041
 20
-819.10128276312366
 30
0.0
 40
19.546093750000001
  1
C
 41
0.7
 72
     1
 11
258.09467857183739
 21
-809.32823588812369
 31
0.0
 73
     2
  0
TEXT
  5
513
  8
DATA
 62
     7
 10
253.5339233635041
 20
-846.70128276312334
 30
0.0
 40
19.546093750000001
  1
D
 41
0.7
 72
     1
 11
258.09467857183739
 21
-836.92823588812337
 31
0.0
 73
     2
  0
TEXT
  5
514
  8
DATA
 62
     7
 10
253.5339233635041
 20
-874.30128276312405
 30
0.0
 40
19.546093750000001
  1
E
 41
0.7
 72
     1
 11
258.09467857183739
 21
-864.52823588812385
 31
0.0
 73
     2
  0
TEXT
  5
515
  8
DATA
 62
     7
 10
253.5339233635041
 20
-901.90128276312339
 30
0.0
 40
19.546093750000001
  1
F
 41
0.7
 72
     1
 11
258.09467857183739
 21
-892.12823588812353
 31
0.0
 73
     2
  0
TEXT
  5
516
  8
DATA
 62
     7
 10
347.74325076025099
 20
-459.67449193360892
 30
0.0
 40
18.764250000000001
  1
LED
 41
0.7
 72
     1
 11
365.256550760251
 21
-450.29236693360889
 31
0.0
 73
     2
  0
TEXT
  5
517
  8
DATA
 62
     7
 10
347.16348746841572
 20
-487.9012827631235
 30
0.0
 40
19.546093750000001
  1
off
 41
0.7
 72
     1
 11
365.40650830174911
 21
-478.12823588812341
 31
0.0
 73
     2
  0
TEXT
  5
518
  8
DATA
 62
     7
 10
353.77687742457391
 20
-706.98019654329164
 30
0.0
 40
19.546093750000001
  1
on
 41
0.7
 72
     1
 11
365.17876544540718
 21
-697.20714966829155
 31
0.0
 73
     2
  0
TEXT
  5
519
  8
DATA
 62
     7
 10
347.16348746841572
 20
-515.50128276312284
 30
0.0
 40
19.546093750000001
  1
off
 41
0.7
 72
     1
 11
365.40650830174911
 21
-505.72823588812292
 31
0.0
 73
     2
  0
TEXT
  5
51A
  8
DATA
 62
     7
 10
347.16348746841572
 20
-543.10128276312309
 30
0.0
 40
19.546093750000001
  1
off
 41
0.7
 72
     1
 11
365.40650830174911
 21
-533.32823588812312
 31
0.0
 73
     2
  0
TEXT
  5
51B
  8
DATA
 62
     7
 10
347.16348746841572
 20
-570.70128276312323
 30
0.0
 40
19.546093750000001
  1
off
 41
0.7
 72
     1
 11
365.40650830174911
 21
-560.92823588812325
 31
0.0
 73
     2
  0
TEXT
  5
51C
  8
DATA
 62
     7
 10
347.16348746841572
 20
-598.30128276312416
 30
0.0
 40
19.546093750000001
  1
off
 41
0.7
 72
     1
 11
365.40650830174911
 21
-588.52823588812419
 31
0.0
 73
     2
  0
TEXT
  5
51D
  8
DATA
 62
     7
 10
347.16348746841572
 20
-625.90128276312419
 30
0.0
 40
19.546093750000001
  1
off
 41
0.7
 72
     1
 11
365.40650830174911
 21
-616.1282358881241
 31
0.0
 73
     2
  0
TEXT
  5
51E
  8
DATA
 62
     7
 10
347.16348746841572
 20
-653.50128276312432
 30
0.0
 40
19.546093750000001
  1
off
 41
0.7
 72
     1
 11
365.40650830174911
 21
-643.72823588812435
 31
0.0
 73
     2
  0
TEXT
  5
51F
  8
DATA
 62
     7
 10
347.16348746841572
 20
-681.10128276312378
 30
0.0
 40
19.546093750000001
  1
off
 41
0.7
 72
     1
 11
365.40650830174911
 21
-671.3282358881238
 31
0.0
 73
     2
  0
TEXT
  5
520
  8
DATA
 62
     7
 10
353.77687742457391
 20
-734.58019654329098
 30
0.0
 40
19.546093750000001
  1
on
 41
0.7
 72
     1
 11
365.17876544540718
 21
-724.807149668291
 31
0.0
 73
     2
  0
TEXT
  5
521
  8
DATA
 62
     7
 10
353.77687742457391
 20
-762.180196543291
 30
0.0
 40
19.546093750000001
  1
on
 41
0.7
 72
     1
 11
365.17876544540718
 21
-752.40714966829103
 31
0.0
 73
     2
  0
TEXT
  5
522
  8
DATA
 62
     7
 10
353.77687742457391
 20
-789.78019654329125
 30
0.0
 40
19.546093750000001
  1
on
 41
0.7
 72
     1
 11
365.17876544540718
 21
-780.00714966829116
 31
0.0
 73
     2
  0
TEXT
  5
523
  8
DATA
 62
     7
 10
353.77687742457391
 20
-817.38019654329071
 30
0.0
 40
19.546093750000001
  1
on
 41
0.7
 72
     1
 11
365.17876544540718
 21
-807.60714966829073
 31
0.0
 73
     2
  0
TEXT
  5
524
  8
DATA
 62
     7
 10
353.77687742457391
 20
-844.98019654329073
 30
0.0
 40
19.546093750000001
  1
on
 41
0.7
 72
     1
 11
365.17876544540718
 21
-835.20714966829075
 31
0.0
 73
     2
  0
TEXT
  5
525
  8
DATA
 62
     7
 10
353.77687742457391
 20
-872.58019654329087
 30
0.0
 40
19.546093750000001
  1
on
 41
0.7
 72
     1
 11
365.17876544540718
 21
-862.807149668291
 31
0.0
 73
     2
  0
TEXT
  5
526
  8
DATA
 62
     7
 10
353.77687742457391
 20
-900.18019654329032
 30
0.0
 40
19.546093750000001
  1
on
 41
0.7
 72
     1
 11
365.17876544540718
 21
-890.40714966829034
 31
0.0
 73
     2
  0
TEXT
  5
527
  8
DATA
 62
     7
 10
428.61695989376449
 20
-460.4387518834813
 30
0.0
 40
18.764250000000001
  1
BASSCUT
 41
0.7
 72
     1
 11
472.4002098937645
 21
-451.05662688348127
 31
0.0
 73
     2
  0
TEXT
  5
528
  8
DATA
 62
     7
 10
455.16348746841572
 20
-487.9012827631235
 30
0.0
 40
19.546093750000001
  1
off
 41
0.7
 72
     1
 11
473.406508301749
 21
-478.12823588812341
 31
0.0
 73
     2
  0
TEXT
  5
529
  8
DATA
 62
     7
 10
455.16348746841572
 20
-515.50128276312284
 30
0.0
 40
19.546093750000001
  1
off
 41
0.7
 72
     1
 11
473.406508301749
 21
-505.72823588812292
 31
0.0
 73
     2
  0
TEXT
  5
52A
  8
DATA
 62
     7
 10
455.16348746841572
 20
-543.10128276312309
 30
0.0
 40
19.546093750000001
  1
off
 41
0.7
 72
     1
 11
473.406508301749
 21
-533.32823588812312
 31
0.0
 73
     2
  0
TEXT
  5
52B
  8
DATA
 62
     7
 10
455.16348746841572
 20
-570.70128276312323
 30
0.0
 40
19.546093750000001
  1
off
 41
0.7
 72
     1
 11
473.406508301749
 21
-560.92823588812325
 31
0.0
 73
     2
  0
TEXT
  5
52C
  8
DATA
 62
     7
 10
455.16348746841572
 20
-708.70128276312391
 30
0.0
 40
19.546093750000001
  1
off
 41
0.7
 72
     1
 11
473.406508301749
 21
-698.92823588812394
 31
0.0
 73
     2
  0
TEXT
  5
52D
  8
DATA
 62
     7
 10
455.16348746841572
 20
-736.30128276312394
 30
0.0
 40
19.546093750000001
  1
off
 41
0.7
 72
     1
 11
473.406508301749
 21
-726.52823588812385
 31
0.0
 73
     2
  0
TEXT
  5
52E
  8
DATA
 62
     7
 10
455.16348746841572
 20
-763.90128276312339
 30
0.0
 40
19.546093750000001
  1
off
 41
0.7
 72
     1
 11
473.406508301749
 21
-754.12823588812353
 31
0.0
 73
     2
  0
TEXT
  5
52F
  8
DATA
 62
     7
 10
455.16348746841572
 20
-791.50128276312341
 30
0.0
 40
19.546093750000001
  1
off
 41
0.7
 72
     1
 11
473.406508301749
 21
-781.72823588812344
 31
0.0
 73
     2
  0
TEXT
  5
530
  8
DATA
 62
     7
 10
462.53410175565989
 20
-595.31399798489394
 30
0.0
 40
19.546093750000001
  1
on
 41
0.7
 72
     1
 11
473.93598977649322
 21
-585.54095110989397
 31
0.0
 73
     2
  0
TEXT
  5
531
  8
DATA
 62
     7
 10
462.53410175565989
 20
-622.91399798489442
 30
0.0
 40
19.546093750000001
  1
on
 41
0.7
 72
     1
 11
473.93598977649322
 21
-613.14095110989444
 31
0.0
 73
     2
  0
TEXT
  5
532
  8
DATA
 62
     7
 10
462.53410175565989
 20
-650.51399798489444
 30
0.0
 40
19.546093750000001
  1
on
 41
0.7
 72
     1
 11
473.93598977649322
 21
-640.74095110989435
 31
0.0
 73
     2
  0
TEXT
  5
533
  8
DATA
 62
     7
 10
462.53410175565989
 20
-678.1139979848939
 30
0.0
 40
19.546093750000001
  1
on
 41
0.7
 72
     1
 11
473.93598977649322
 21
-668.34095110989392
 31
0.0
 73
     2
  0
TEXT
  5
534
  8
DATA
 62
     7
 10
461.77687742457391
 20
-817.38019654329071
 30
0.0
 40
19.546093750000001
  1
on
 41
0.7
 72
     1
 11
473.17876544540718
 21
-807.60714966829073
 31
0.0
 73
     2
  0
TEXT
  5
535
  8
DATA
 62
     7
 10
461.77687742457391
 20
-844.98019654329073
 30
0.0
 40
19.546093750000001
  1
on
 41
0.7
 72
     1
 11
473.17876544540718
 21
-835.20714966829075
 31
0.0
 73
     2
  0
TEXT
  5
536
  8
DATA
 62
     7
 10
461.77687742457391
 20
-872.58019654329087
 30
0.0
 40
19.546093750000001
  1
on
 41
0.7
 72
     1
 11
473.17876544540718
 21
-862.807149668291
 31
0.0
 73
     2
  0
TEXT
  5
537
  8
DATA
 62
     7
 10
461.77687742457391
 20
-900.18019654329032
 30
0.0
 40
19.546093750000001
  1
on
 41
0.7
 72
     1
 11
473.17876544540718
 21
-890.40714966829034
 31
0.0
 73
     2
  0
TEXT
  5
538
  8
DATA
 62
     7
 10
573.15696975607045
 20
-460.4387518834813
 30
0.0
 40
18.764250000000001
  1
SWITCH
 41
0.7
 72
     1
 11
610.37273225607044
 21
-451.05662688348127
 31
0.0
 73
     2
  0
TEXT
  5
539
  8
DATA
 62
     7
 10
573.15696975607045
 20
-487.65729210891351
 30
0.0
 40
18.764250000000001
  1
on/off
 41
0.7
 72
     1
 11
610.37273225607044
 21
-478.27516710891359
 31
0.0
 73
     2
  0
TEXT
  5
53A
  8
DATA
 62
     7
 10
540.95847974089475
 20
-514.11291278521276
 30
0.0
 40
18.764250000000001
  1
push to talk
 41
0.7
 72
     1
 11
609.04143349089475
 21
-504.73078778521273
 31
0.0
 73
     2
  0
TEXT
  5
53B
  8
DATA
 62
     7
 10
538.05619576546064
 20
-542.09437255977934
 30
0.0
 40
18.764250000000001
  1
push to mute
 41
0.7
 72
     1
 11
609.42289326546063
 21
-532.71224755977937
 31
0.0
 73
     2
  0
TEXT
  5
53C
  8
DATA
 62
     7
 10
607.69980914032215
 20
-569.69437255977948
 30
0.0
 40
18.764250000000001
  1
-
 41
0.7
 72
     1
 11
612.07813414032216
 21
-560.31224755977939
 31
0.0
 73
     2
  0
TEXT
  5
53D
  8
DATA
 62
     7
 10
573.15696975607045
 20
-597.2943725597803
 30
0.0
 40
18.764250000000001
  1
on/off
 41
0.7
 72
     1
 11
610.37273225607044
 21
-587.91224755978033
 31
0.0
 73
     2
  0
TEXT
  5
53E
  8
DATA
 62
     7
 10
540.95847974089475
 20
-624.51291278521308
 30
0.0
 40
18.764250000000001
  1
push to talk
 41
0.7
 72
     1
 11
609.04143349089475
 21
-615.13078778521322
 31
0.0
 73
     2
  0
TEXT
  5
53F
  8
DATA
 62
     7
 10
538.05619576546064
 20
-652.49437255978057
 30
0.0
 40
18.764250000000001
  1
push to mute
 41
0.7
 72
     1
 11
609.42289326546063
 21
-643.11224755978049
 31
0.0
 73
     2
  0
TEXT
  5
540
  8
DATA
 62
     7
 10
607.69980914032215
 20
-680.0943725597806
 30
0.0
 40
18.764250000000001
  1
-
 41
0.7
 72
     1
 11
612.07813414032216
 21
-670.71224755978074
 31
0.0
 73
     2
  0
TEXT
  5
541
  8
DATA
 62
     7
 10
573.15696975607045
 20
-707.69437255978005
 30
0.0
 40
18.764250000000001
  1
on/off
 41
0.7
 72
     1
 11
610.37273225607044
 21
-698.31224755977996
 31
0.0
 73
     2
  0
TEXT
  5
542
  8
DATA
 62
     7
 10
540.95847974089475
 20
-734.91291278521317
 30
0.0
 40
18.764250000000001
  1
push to talk
 41
0.7
 72
     1
 11
609.04143349089475
 21
-725.53078778521319
 31
0.0
 73
     2
  0
TEXT
  5
543
  8
DATA
 62
     7
 10
538.05619576546064
 20
-762.89437255978044
 30
0.0
 40
18.764250000000001
  1
push to mute
 41
0.7
 72
     1
 11
609.42289326546063
 21
-753.51224755978046
 31
0.0
 73
     2
  0
TEXT
  5
544
  8
DATA
 62
     7
 10
607.69980914032215
 20
-790.49437255978057
 30
0.0
 40
18.764250000000001
  1
-
 41
0.7
 72
     1
 11
612.07813414032216
 21
-781.1122475597806
 31
0.0
 73
     2
  0
TEXT
  5
545
  8
DATA
 62
     7
 10
573.15696975607045
 20
-818.09437255977991
 30
0.0
 40
18.764250000000001
  1
on/off
 41
0.7
 72
     1
 11
610.37273225607044
 21
-808.71224755978005
 31
0.0
 73
     2
  0
TEXT
  5
546
  8
DATA
 62
     7
 10
540.95847974089475
 20
-845.31291278521314
 30
0.0
 40
18.764250000000001
  1
push to talk
 41
0.7
 72
     1
 11
609.04143349089475
 21
-835.93078778521294
 31
0.0
 73
     2
  0
TEXT
  5
547
  8
DATA
 62
     7
 10
538.05619576546064
 20
-873.29437255978041
 30
0.0
 40
18.764250000000001
  1
push to mute
 41
0.7
 72
     1
 11
609.42289326546063
 21
-863.91224755978055
 31
0.0
 73
     2
  0
TEXT
  5
548
  8
DATA
 62
     7
 10
607.69980914032215
 20
-900.89437255978044
 30
0.0
 40
18.764250000000001
  1
-
 41
0.7
 72
     1
 11
612.07813414032216
 21
-891.51224755978035
 31
0.0
 73
     2
  0
LINE
  5
549
  8
DATA
  6
CONTINUOUS
 62
     7
 10
203.9999999999973
 20
-989.19999999999879
 30
0.0
 11
696.00000000000227
 21
-989.19999999999879
 31
0.0
  0
TEXT
  5
54A
  8
DATA
 62
     7
 10
413.1487975604532
 20
-955.05039017999445
 30
0.0
 40
20.849166666666669
  1
Made in Philippines
 41
0.7
 11
413.1487975604532
 21
-944.62580684666102
 31
0.0
 73
     2
  0
TEXT
  5
54B
  8
DATA
 62
     7
 10
-350.0
 20
-538.57367621527783
 30
0.0
 40
27.147352430555561
  1
ウインドスクリーン
 41
0.7
 11
-350.0
 21
-525.0
 31
0.0
 73
     2
  0
LINE
  5
54C
  8
DATA
  6
CONTINUOUS
 62
     7
 10
488.89999999999998
 20
-108.2890158284187
 30
0.0
 11
488.89999999999998
 21
-108.134657831629
 31
0.0
  0
LINE
  5
54D
  8
DATA
  6
CONTINUOUS
 62
     7
 10
511.10000000000008
 20
-108.2890158284187
 30
0.0
 11
488.89999999999998
 21
-108.2890158284187
 31
0.0
  0
LINE
  5
54E
  8
DATA
  6
CONTINUOUS
 62
     7
 10
511.10000000000008
 20
-108.134657831629
 30
0.0
 11
511.10000000000008
 21
-108.2890158284187
 31
0.0
  0
ENDSEC
  0
EOF
